Gametabs
Home
Tabs
Random

Ryouken no Shuusei

Average rating: 4.833

6 ratings

Composer:

Tabber:

Style:

Instrument:

Created: December 11, 2014 at 12:00 AM

            Title: Ryouken no Shuusei
SubTitle: Psycho Pass
Artist: Yugo Kanno
Tabber: Mitch Jackson
Tempo = 125
T/S = 4/4

--------
LEGEND 
--------
(x) = MUTE


     Q.       Q.       Q          W                            E  E  E  Q     E  E  E       W
E |----------------------------|----------------------------|----------------------------|----------------------------|
B |-------------------<12>-----|--L-------------------------|-------<12>-----------<7>---|--L-------------------------|
G |----------------------------|----------------------------|----------<12>-----<7>------|--L-------------------------|
D |----------<12>--------------|--L-------------------------|----<12>--------<7>---------|--L-------------------------|
A |----------------------------|----------------------------|----------------------------|----------------------------|
E |-<12>-----------------------|--L-------------------------|-<12>-----------------------|--L-------------------------|

  
     Q.       Q.       Q          W                            Q.       Q.       Q          W
  |----------------------------|----------------------------|----------------------------|----------------------------|
  |-------------------<12>-----|--L-------------------------|----------<7>---------------|--L-------------------------|
  |----------------------------|----------------------------|-------------------<7>------|--L-------------------------|
  |----------<12>--------------|--L-------------------------|-<7>------------------------|--L-------------------------|
  |----------------------------|----------------------------|----------------------------|----------------------------|
  |-<12>-----------------------|--L-------------------------|----------------------------|----------------------------|


     H           S E.  E  E       H           E  E  E  E       Q     H.                     E  E  E  E  E  E  E  E
  |--0-------------------------|----------------------------|----------------------------|--5h-7p-5h-7----------------|
  |--0-----------------0-------|----------------------------|--4-----0-------------------|--7-------------------------|
  |-----------------------0----|--L-------------------------|--0-------------------------|--6-------------------------|
  |--------------2s4-----------|----------------------------|----------------------------|----------------------------|
  |--2-------------------------|--------------0h-2h-3-------|--2-------------------------|--------------0h-2h-3-------|
  |--0-------------------------|-----------------------3----|--0-------------------------|--0--------------------3----|

                                                                           
     H           E  E  E  E       E  Q.       E  E  E  E       W                            E  E  E  E  E  E  E  E  
  |--0-----------L--------7----|--L--7----------------------|----------------------------|--5h-7p-5h-7----------------|
  |--0-----------L--------7----|--L--7----------------------|--4-------------------------|--7-------------------------|
  |--------------------6-------|----------------------------|--2-------------------------|--6-------------------------|
  |-----------------5----------|----------------------------|----------------------------|----------------------------|
  |--2-----------L-------------|--------------0h-2h-3-------|--2-------------------------|--------------0h-2h-3-------|
  |--0-----------L-------------|--L--------------------3----|----------------------------|-----------------------3----|

                             
     H           S E.  E  E       H           E  E  E  E       Q     H           E  E       E  E  Q     E  E  E  E     
  |--0-----------5s7-----------|----------------------------|----------------------------|----------------------------|
  |--0-----------------0-------|----------------------------|--4-----0-----------4s-5----|--L--5s-7-------------------|
  |-----------------------0----|--L-------------------------|--0-------------------------|----------------------------|
  |--------------2s4-----------|----------------------------|--------------------1s-2----|--L--2s-4-------------------|
  |--2-------------------------|--------------0h-2h-3-------|--2-------------------------|--------------0h-2h-3-------|
  |--0-------------------------|-----------------------3----|--0-------------------------|-----------------------3----|

                                                          
     H           E  E  S S E       E  Q.       E  E  E  E       W                            E  Q     Q     Q.          
  |--0-----------L-----5s7-7----|--L--7----------------------|----------------------------|--5h-7-----11---------------|
  |--0-----------L-----0---7----|--L--7----------------------|--4-------------------------|--7--------------13---------|
  |-----------------0-----------|----------------------------|--2-------------------------|--6-------------------------|
  |-----------------------------|----------------------------|----------------------------|----------------------------|
  |--2-----------L--------------|--------------0h-2h-3-------|--2-------------------------|----------------------------|
  |--0-----------L--------------|-----------------------3----|----------------------------|----------------------------|

                                                                  
     Q.       E  H                Q.       E  H                W                            W                          
  |--7-------------------------|--5-------------------------|--8-------------------------|--6-------------------------|
  |--8--------0-(x)------------|--6--------5-(x)------------|--9-------------------------|--7-------------------------|
  |--11-------0-(x)------------|--9--------5-(x)------------|--12------------------------|--5-------------------------|
  |----------------------------|--0-------------------------|--10------------------------|----------------------------|
  |----------------------------|----------------------------|--8-------------------------|--6-------------------------|
  |--0-------------------------|----------------------------|----------------------------|----------------------------|


     Q.       E  H                Q.       E  H                H           E  E  Q          W
  |--7-------------------------|--5-------------------------|--8-----------L-------------|--6-------------------------|
  |--8--------0-(x)------------|--6--------5-(x)------------|--9-----------L-------------|--7-------------------------|
  |--11-------0-(x)------------|--9--------5-(x)------------|--12----------L--12---------|--5-------------------------|
  |----------------------------|--0-------------------------|--10----------L-----10------|----------------------------|
  |----------------------------|----------------------------|--8-----------L-------------|--6-------------------------|
  |--0-------------------------|----------------------------|----------------------------|----------------------------|

    
      E  E  E  E  E  E  E  E       E  E  E  E  E  E  E  E       E  E  E  E  E  E  E  E       E  E  E  E  E  E  E  E     
  ||----------------------------|----------------------------|----------------------------|---------------------------||
  ||----------------------------|----------------------------|----------------------------|---------------------------||
  ||o---------------------------|----------------------------|----------------------------|--------------------------o|| X4
  ||o---------------------------|----------------------------|--0-----------0-------------|--0-----------0-----------o||
  ||--------0--2--------0--2----|--------0--2--------0--2----|-----------0-----------0----|-----------0-----------0---||
  ||--0--3--------0--3----------|--0--3--------0--3----------|-----1--3--------1--3-------|-----1--3--------1--3------||

                                                          
     H           S E.  E  E       H           E  E  E  E       Q     H           E  E       E  E  E  E  E  E  E  E 
  |-<12>---------5s7-----------|----------------------------|-----------------------0----|--5h-7p-5h-7----------------|
  |-<12>---------------0-------|----------------------------|--4-----0-----------4-------|--7-------------------------|
  |-----------------------0----|--L-------------------------|--0-------------------------|--6-------------------------|
  |--------------2s4-----------|----------------------------|----------------------------|----------------------------|
  |----------------------------|--------------0h-2h-3-------|--2-------------------------|--------------0h-2h-3-------|
  |--0-------------------------|-----------------------3----|--0-------------------------|--0--------------------3----|

                                                          
     H           E  E  S S E       E  Q.       E  E  E  E       W                            E  Q     Q     Q.
  |--0-----------L-----5s7-7----|--L--7----------------------|----------------------------|--5h-7-----11---------------|
  |--0-----------L-----0---7----|--L--7----------------------|--4-------------------------|--7--------------13---------|
  |-----------------0-----------|----------------------------|--2-------------------------|--6-------------------------|
  |-----------------------------|----------------------------|----------------------------|----------------------------|
  |--2-----------L--------------|--------------0h-2h-3-------|--2-------------------------|----------------------------|
  |--0-----------L--------------|-----------------------3----|----------------------------|----------------------------|

                                                                  
     Q.       Q.       Q          W                            E  E  E  Q     E  E  E       W
  |----------------------------|----------------------------|----------------------------|----------------------------|
  |-------------------<12>-----|--L-------------------------|-------<12>-----------<7>---|--L-------------------------|
  |----------------------------|----------------------------|----------<12>-----<7>------|--L-------------------------|
  |----------<12>--------------|--L-------------------------|----<12>--------<7>---------|--L-------------------------|
  |----------------------------|----------------------------|----------------------------|----------------------------|
  |-<12>-----------------------|--L-------------------------|-<12>-----------------------|--L-------------------------|

     Q.       Q.       Q          W                            Q.       Q.       Q          W
  |----------------------------|----------------------------|----------------------------|----------------------------|
  |-------------------<12>-----|--L-------------------------|----------<7>---------------|--L-------------------------|
  |----------------------------|----------------------------|-------------------<7>------|--L-------------------------|
  |----------<12>--------------|--L-------------------------|-<7>------------------------|--L-------------------------|
  |----------------------------|----------------------------|----------------------------|----------------------------|
  |-<12>-----------------------|--L-------------------------|----------------------------|----------------------------|

     ^
     W                            W
  |-<12>-----------------------|--L-------------------------||
  |-<12>-----------------------|--L-------------------------||
  |-<12>-----------------------|--L-------------------------||
  |----------------------------|----------------------------||
  |----------------------------|----------------------------||
  |----------------------------|----------------------------||


        
Comments

No comments yet