Gametabs
Home
Tabs
Random

Sector 1

Average rating: 5.000

1 ratings

Composer:

Tabber:

Style:

Instrument:

Created: February 15, 2009 at 12:00 AM

            Sector 1                                     
~Power Blade~
Tabbed by: Justin Lincoln

BPM=130

     S E  S  E  S E  E  S  E  E     E  E  E  S E  E  S E  E   
E||------------------------------|---------------------------|
B||---------------8--8-----------|--8-----6----8--8----6-----|
G||--7-7--7-10--7-------7-10--7--|-----7-----7-------7----7--|
D||------------------------------|---------------------------|
A||------------------------------|---------------------------|
E||------------------------------|---------------------------|


  S E  S E  S E  E  S E  E     E  E  E  S E.  E  E  E   
----------------------------|--------6----7------8-----|
---------6----8--8----6-----|--8-----8----8------8-----|
--7-7--7----7-------7----7--|--7--7-----7-----7-----7--|
----------------------------|--------------------------|
----------------------------|--------------------------|
----------------------------|--------------------------|


    S E  S E  E  S E  S E  S S    S E  S E  E  S S S E  S E   
|------------------------------|-----------------------------|
|---5-6--5-5-------------------|--5-6--5-5-------------------|
|*--5-7--5-5--5--5-7--5-7--5-7-|--5-7--5-5--5--5-5-7-5--5-7--|
|*------------7--5-7--5-7--5-7-|------------7--5-5-7-5--5-7--|
|------------------------------|-----------------------------|
|------------------------------|-----------------------------|


  E.  S Q    S E  E.  E     S E  S Q    S S S S E  E   
-------------------------|----------------------------|
--6---6-6----8-6--5------|----------------------------|
--7---7-7----9-7--5---5--|--5-7--5-7----L-5-5-7-5--7--|
----------------------5--|--5-7--5-7----L-5-5-7-5--7--|
-------------------------|----------------------------|
-------------------------|----------------------------|


  S E  S E  E  S E  S E  S S    S E  S E  E  S S S E  S E   
-----------------------------|-----------------------------|
--5-6--5-5-------------------|--5-6--5-5-------------------|
--5-7--5-5--5--5-7--5-7--5-7-|--5-7--5-5--5--5-5-7-5--5-7--|
------------7--5-7--5-7--5-7-|------------7--5-5-7-5--5-7--|
-----------------------------|-----------------------------|
-----------------------------|-----------------------------|


  E.  S Q    S E  E.  E     S E  S Q    S S S S E  E   
-------------------------|----------------------------|
--6---6-6----8-6--5------|----------------------------|
--7---7-7----9-7--5---5--|--5-7--5-7----L-5-5-7-5--7--|
----------------------5--|--5-7--5-7----L-5-5-7-5--7--|
-------------------------|----------------------------|
-------------------------|----------------------------|


   E.   S  E   S  S  S  E   S  E   E      E.   S  E   S  S  S  E   S  E   E   
--17---15--L--------17-15--13-12--13--|--15---13--L--------15-15--13-12--13--|
--15---15--L--------------------------|--13---13--L--------------------------|
--------------12-14-------------------|--------------10-12-------------------|
--------------------------------------|--------------------------------------|
--------------------------------------|--------------------------------------|
--------------------------------------|--------------------------------------|


   E.   S  E.   E   E   S  E   E      E.   S  E   E   H         
--13---12--L---13--13--12-13--12--|--12---11--L--17---L--------|
--12---12--L---12--12--12-12--12--|--10---10--L--17---L--------|
----------------------------------|----------------------------|
----------------------------------|----------------------------|
----------------------------------|----------------------------|
----------------------------------|----------------------------|


   E.   S  E   S  S  S  E   S  E   E      E.   S  E   S  S  S  E   S  E   E   
--17---15--L--------17-15--13-12--13--|--15---13--L--------15-15--13-12--13--|
--15---15--L--------------------------|--13---13--L--------------------------|
--------------12-14-------------------|--------------10-12-------------------|
--------------------------------------|--------------------------------------|
--------------------------------------|--------------------------------------|
--------------------------------------|--------------------------------------|


   E.   S  E.   E   E   S  E   E      E.   S  E   E   Q.      S  S  
--13---12--L---13--13--12-13--12--|--12---11--L--17---L----------8-|
--12---12--L---12--12--12-12--12--|--10---10--L--17---L------10-10-|
----------------------------------|--------------------------------|
----------------------------------|--------------------------------|
----------------------------------|--------------------------------|
----------------------------------|--------------------------------|


   E.   S  E   S  S  E.   S  E   S  S     E   E   S  E   E   E   S  E   S  S  
--10---10--L------8-10---10--L------8-|--10--10--12-10--13--13--12--8------8-|
--10---10--L--10-10-10---10--L--10-10-|--10--10--10-10--15--15--13-10--10-10-|
--------------------------------------|--------------------------------------|
--------------------------------------|--------------------------------------|
--------------------------------------|--------------------------------------|
--------------------------------------|--------------------------------------|


   E.   S  E   S  S  E.   S  E   S  S     E   E   S  E   S  H            
--10---10--L------8-10---10--L------8-|--10--10--12-10--17--L\---------||
--10---10--L--10-10-10---10--L--10-10-|--10--10--10-10--17--L\---------||
--------------------------------------|-------------------------------*||
--------------------------------------|-------------------------------*||
--------------------------------------|--------------------------------||
--------------------------------------|--------------------------------||




Duration Legend
---------------
W - whole
H - half
Q - quarter
E - 8th
S - 16th
T - 32nd
X - 64th
. - note dotted
|-n-|  - n-tuplets


Tablature Legend
----------------
L - tied note
\ -  slide into from above or out of downwards

        
Comments

No comments yet