Gametabs
Home
Tabs
Random

Want You Gone

Average rating: 5.000

11 ratings

Composer:

Tabber:

Style:

Instrument:

Created: April 26, 2011 at 12:00 AM

            Want You Gone                                   
~Portal 2~
Composed By: Johnathan Coulton
Arranged By: Justin Lincoln

Playing instructions: Play through, follwing 1st and 2nd endings.
When you reach D.S. al Coda, go back to the measure maked with 
(SEGNO) and play until you reach Da Coda, then jump to the measure
marked with (CODA) and play to the end.

BPM=100

     E  E  E  E  E  E  Q       E  E  E  E  E  E  Q     
E||-------------------------|-------------------------|
B||-------------------------|-------------------------|
G||-------------------------|-------------------------|
D||-----2-----2-----1-------|-----0-----0-----3-------|
A||--0-----0-----0----------|--0-----0-----0----------|
E||-------------------------|-------------------------|


    E  E  E  S S S S E  Q       E  E  E  E  E  S S S E.   
|----------------------------|---------------------------|
|------------0-2---3-2-------|--------------0------------|
|*--------2------------------|-----2--2--------2-1---2---|
|*-----2-----2-------1-------|-----0-----2-----3---------|
|---0-----0------0-----------|--0-----0-----0------------|
|----------------------------|---------------------------|

                              (SEGNO)
  E  E  S S S S E  S S S E.     E  E  E  E  S S S S S S E   
-----------------------------|-----------------------------|
--------------0-2--3-2---0---|--------0--------------------|
------------2----------------|--2--------1-----------------|
-----2----2--------1---------|-----0-----0-----------------|
--0-----0-------0------------|--0-----0-----------------2--|
-----------------------------|--------------0-0-0-0-2-4----|


  E  E  E  E  E  S S S E.     E  E  E  E  S S S S S E.   
---------------------------|----------------------------|
-----------0--2--3-2-------|--------------0-------------|
--------2------------------|-----2--2-------2---1---2---|
-----2-----2-----1---------|-----0-----2------3---------|
--0-----0-----0------------|--0-----0-----0-------------|
---------------------------|----------------------------|

                                             Da Coda
  E  E  E  E  E  S S S E.     E  E  E  E  E  E  E  E   
---------------------------|--------2-----------------|
-----------0--2--3-2---0---|--------------6-----0-----|
--------2------------------|--2--------------6-----3--|
-----2-----2-----1---------|-----0-----0-----6--------|
--0-----0-----0------------|--0-----0-----4-----------|
---------------------------|--------------------------|

1st Ending -----------
  E  E  E  E  E  E  E  E     E  E  E  E  E  E  E  E   
--------------------------|-----6--------------------|
-----------------0--2-----|-----------9-----7--------|
--L-----------3--------6--|--L-----------------------|
--------4-----------------|--------8-----------9-----|
-----4-----4--------------|-----9-----------9-----9--|
--2-----------4-----------|--6-----------7-----------|


  E  E  E  E  E  E  E  E     E  E  E  E  E  E  E  E   
--------------------------|--------------------------|
--------------0--------0--|--------------------------|
-----------------3--------|--3-----------------------|
--------4-----------4-----|-----4--L-----------1--3--|
-----4-----4--------------|-----------4--2--4--------|
--2-----------4-----------|--6-----6-----------------|


  E  E  E  E  E  E  E  E     E  E  E  E  E  E  E  E   
--------------------------|-----6--------------------|
-----------------0--2-----|-----------9-----7-----7--|
-----------3--3--------6--|--L--------------------7--|
--4-----4-----------------|--------8-----------9--9--|
-----4--------------------|-----9-----------9--------|
--2-----------4-----------|--6-----------7--------7--|


  E  E  E  E  E  E  E  E     E  S S E  E  E  E  Q     
-----------0--0-----------|--------------------------|
--L--7--7-----0-----3--2--|--L--0--------------------|
--L-----------1-----------|-------2-L----------------|
--L-----------2-----------|-----2------2-----1-------|
-----------------------0--|--L------0-----0----------|
--L-----------0--2--4-----|--------------------------|

                              2nd Ending ------------
  E  E  E  E  E  E  Q         E  E  E  E  E  E  E  E   
--------------------------||--------------------------|
--------------------------||-----------------0--2-----|
-------------------------*||--------------3--------6--|
-----0-----0-----3-------*||--------4-----------------|
--0-----0-----0-----------||-----4-----4--------------|
--------------------------||--2-----------4-----------|


  E  E  E  E  E  E  E  E     E  E  E  E  E  E  E  E   
-----6--------------------|--------------------------|
-----------9-----7--------|--------------4--2-----4--|
--L-----------------------|--------------4--3--3--4--|
--------8-----------9-----|--------4-----------4-----|
-----9-----------9-----9--|-----4-----4--------------|
--6-----------7-----------|--2-----------4-----------|


  E  E  E  E  E  E  E  E     E  E  E  E  E  E  E  E   
--------------------------|--------------------------|
--------------------------|-----------------0--2-----|
--6-----------------------|-----------3--3--------6--|
--8--8--L-----------1--3--|--4-----4-----------------|
-----9--L--4--2--4--------|-----4--------------------|
--6-----6-----------------|--2-----------4-----------|


  E  E  E  E  E  E  E  E     E  E  E  E  E  E  E  E   
-----6--------------------|-----------0--0-----------|
-----------9-----7-----7--|--L--7--7-----0-----3--2--|
--L--------------------7--|--L-----------1-----------|
--------8-----------9--9--|--L-----------2-----------|
-----9-----------9--------|-----------------------0--|
--6-----------7--------7--|--L-----------0--2--4-----|


  E  S S E  E  E  E  Q       E  E  E  E  E  E  Q     
--------------------------|-------------------------|
--L--0--------------------|-------------------------|
-------2-L----------------|-------------------------|
-----2------2-----1-------|-----0-----0-----3-------|
--0------0-----0----------|--0-----0-----0----------|
--------------------------|-------------------------|


  E  E  E  E  E  S S S E.     E  E  E  S S S E  E  E.   
---------------------------|---------------------------|
-----------0--2--3-2-------|---------------0-----------|
--------2------------------|-----2-----2-----2--1--2---|
-----2-----2-----1---------|-------------2-------------|
--0-----0-----0------------|---------------------------|
---------------------------|---------------------------|

              D.S. ak Coda   (CODA)
  E  E  E  E  S S E  E  S S    E  E  E  E  E  E  E  E   
----------------------------|--------------------------|
-----------0--2-3-------2-0-|-----------------0--2-----|
--------2-------------------|--------------3--------6--|
-----2-----2------1---------|--------4-----------------|
--0-----0-----0-------------|-----4-----4--------------|
----------------------------|--2-----------4-----------|


  E  E  E  E  E  E  E  E     E  E  E  E  E  E  E  E   
-----6--------------------|--------------------------|
-----------9-----7--------|--------------4--2-----4--|
--L-----------------------|--------------4--3--3--4--|
--------8-----------9-----|--------4-----------4-----|
-----9-----------9-----9--|-----4-----4--------------|
--6-----------7-----------|--2-----------4-----------|


  E  E  E  E  E  E  E  E     E  E  E  E  E  E  E  E   
--------------------------|--------------------------|
--------------------------|-----------------0--2-----|
--6-----------------------|-----------3--3--------6--|
--8--8--L-----------1--3--|--4-----4-----------------|
-----9--L--4--2--4--------|-----4--------------------|
--6-----6-----------------|--2-----------4-----------|


  E  E  E  E  E  E  E  E     E  E  E  E  E  E  E  E   
-----6--------------------|-----------0--0-----------|
-----------9-----7-----7--|--L--7--7-----0-----3--2--|
--L--------------------7--|--L-----------1--------2--|
--------8-----------9--9--|--L--------------------2--|
-----9-----------9--------|-----------------------0--|
--6-----------7--------7--|--L-----------0--2--4-----|


  E  S S E  E  E  E  E  E     E  E  E  E  E  E  E  E   
---------------------------|-----------0--0-----------|
--L--0------------------7--|--L--7--7-----0-----3--2--|
--L----2-L--------------7--|--L-----------1--------2--|
--L--2------2-----2-----9--|--L--------------------2--|
--L------------------------|-----------------------0--|
---------4-----2-----0--7--|--L-----------0--2--4-----|


  E  S S E  E  E  E  E  E     E  E  E  E  E  E  E  E     W                  
---------------------------|-----------0--0-----------|-------------------||
--L--0------------------7--|--L--7--7-----0-----3--2--|--L----------------||
--L----2-L--------------7--|--L-----------1--------2--|--L----------------||
--L--2------2-----2-----9--|--L--------------------2--|--L----------------||
--L------------------------|-----------------------0--|--L----------------||
---------4-----2-----0--7--|--L-----------0--2--4-----|-------------------||




Duration Legend
---------------
W - whole
H - half
Q - quarter
E - 8th
S - 16th
T - 32nd
X - 64th
. - note dotted
|-n-|  - n-tuplets


Tablature Legend
----------------
L - tied note

        
Comments

@Link Strife07 (April 27, 2011 at 12:21 AM)

Already a portal 2 tab, haha nice job kabuki :)


@billybillyjim (April 27, 2011 at 12:34 AM)

I love you.


@60NCA10 (May 01, 2011 at 4:39 PM)

I wanted to be the first one to post a fingerstyle arrangement of this song...

Great job by the way.

I'll post mine anyway. I play the chorus and the final part a bit differently.


@dr_awesome339 (March 18, 2012 at 3:02 AM)

Awesome tab