Gametabs
Home
Tabs
Random

Song of Jigglypuff

Average rating: 5.000

7 ratings

Composer:

Tabber:

Style:

Instrument:

Created: April 27, 2011 at 12:00 AM

            



                            POKÉMON
                      "Song of Jigglypuff"
                 (a.k.a. "Jigglypuff's Lullaby")


                Original song by: Junichi Masuda

                  Fingerstyle Arrangement by:
                        Gonçalo Martins
                       January 15th 2010






     D                                 G6                D               
     ^                                 ^                 ^               
     H.              Q.     E  Q       Q.     E  Q       Q.     E  Q     
E||---------------|---------5--2----|--0------2--3----|--2------0--2----|
B||--3------------|--3--------------|--0--------------|--3--------------|
G||--2------------|-----------------|--0--------------|--2--------------|
D||--0------------|-----------------|--0--------------|--0--------------|
A||---------------|-----------------|-----------------|-----------------|
E||---------------|-----------------|-----------------|-----------------|


  G               D                 G6                D             
  ^               ^                 ^                 ^             
  H.              Q.     E  Q       Q.     E  Q       H.            
---------------|---------5--2----|--0------2--3----|--2------------|
--3------------|--3--------------|--0--------------|--3------------|
--0------------|--2--------------|--0--------------|--2------------|
--0------------|--0--------------|--0--------------|--0------------|
--2------------|-----------------|-----------------|---------------|
--3------------|-----------------|-----------------|---------------|


  G               D                  G6                D               
  ^               ^                  ^                 ^               
  H.              Q.     E  E  E     Q.     E  Q       Q.     E  Q     
---------------|---------5--2-----|--0------2--3----|--2------0--2----|
--0------------|--3------------3--|--0--------------|--3--------------|
--0------------|--2---------------|--0--------------|--2--------------|
--0------------|--0---------------|--0--------------|--0--------------|
---------------|------------------|-----------------|-----------------|
---------------|------------------|-----------------|-----------------|


  G                 D                 G6                D#m           
  ^                 ^                 ^                 ^             
  Q    Q    Q       Q.     E  Q       Q.     E  Q       H.            
-----------------|---------5--2----|--0------2--3----|--2------------|
--3--------------|--3--------------|--0--------------|--4------------|
--0--------------|--2--------------|--0--------------|--3------------|
--0--------------|--0--------------|--0--------------|---------------|
--2----2----1----|-----------------|-----------------|---------------|
--3--------------|-----------------|-----------------|---------------|


                  B                                 B               
                  ^                                 ^               
  H.              Q.     E  Q       H.              Q.     E  Q     
---------------|---------6--4----|---------------|---------6--4----|
---------------|--4--------------|--6------------|--4--------------|
--L------------|--4--------------|---------------|--4--------------|
--L------------|--4--------------|--3------------|--4--------------|
--L------------|-----------------|---------------|-----------------|
--L------------|-----------------|---------------|-----------------|


                   Cm                 A#                G#m           
                   ^                  ^                 ^             
  H.               Q.      E  Q       Q.     E  Q       H.            
--1------------|----------11--8----|---------8--6----|---------------|
---------------|---8---------------|--6--------------|--4------------|
---------------|---8---------------|--7--------------|--5------------|
--3------------|--10---------------|--8--------------|--6------------|
---------------|--10---------------|--8--------------|--6------------|
---------------|---8---------------|--6--------------|--4------------|


                  C#          F#6            C#  A                       
                  ^           ^              ^   ^                       
  H.              E.  E.  E.  E.     E.  E.  E.  E.     E.  E.  E.  E.   
---------------|------4-----------|--1---2---4---5---|--4---5---2---1---|
---------------|----------6---4---|----------6---5---|------------------|
---------------|--6-----------3---|----------6---6---|------------------|
--L------------|--6-----------4---|----------6---7---|------------------|
--L------------|--4---------------|----------4---7---|--------------4---|
---------------|------------------|--------------5---|------------------|


              F#                    
              ^                     
  E.  E.  E.  E.     H.             
--L---2---4---2---|--L------------||
--------------2---|---------------||
--L-----------3---|--L------------||
--L-----------4---|--L------------||
--L-----------4---|--L------------||
--------------2---|---------------||





Duration Legend
---------------
H - half
Q - quarter
E - 8th
. - note dotted


Tablature Legend
----------------
L - tied note
^ - brush up




        
Comments

@tiganior1 (April 28, 2011 at 3:45 AM)

What a good ta-Zzzzzzzzzzzzzzzzzzzzzz


@kanshiketsu89 (April 28, 2011 at 9:19 PM)

Lol, awesome mate... XD I wanted to do a "zzzzzzzzzz" joke as well, but tiganior1 beat me to it. :D It was a great idea to tab this, totally cool.