Gametabs
Home
Tabs
Random

Pokemon Theme Song

Average rating: 2.800

5 ratings

Composer:

Tabber:

Style:

Instrument:

Created: November 30, 2011 at 12:00 AM

            Pokemon Opening Theme
Pokemon

Artist: Jason Paige  
Lyrics: John Loeffler  
Composer: John Loeffler
Arrangement: John Siegler  
Tabbed by: Ragna1999 

11/28/11

e|-----------------------------------------------|
B|-----------------------------------------------|
G|-7-7-7-7----7--5-------7--7--5---5-------------|
D|------------------7------------8---------------|
A|--------------------8--------------------------|
E|-----------------------------------------------|

e|-----------------------------------------------|
B|-----------------------------------------------|
G|-8-8-8-8----8-7--5-----------7-7-5----7--------|
D|--------------------8------8--------8----------|
A|-----------------------------------------------|
E|-----------------------------------------------|

e|-----------------------------------------------|
B|-----------------------------------------------|
G|-7-7-7-7----7--5-------7--7--5---5-------------|
D|------------------7------------8---------------|
A|--------------------8--------------------------|
E|-----------------------------------------------|

e|-----------------------------------------------|
B|-----------------------------------------------|
G|-8-8-8-8----8-7--5-----------7-7-5----7--------|
D|--------------------8------8--------8----------|
A|-----------------------------------------------|
E|-----------------------------------------------|

e|-----------------------------------------------|
B|-----------------------------------------------|
G|-12-14-15----12-12-14-15---15------14----------|
D|-----------------------------------------------|
A|-----------------------------------------------|
E|-----------------------------------------------|

e|-----------------------------------------------|
B|-----------------------------------------------|
G|--------------------------------12-14-15-------|
D|-17-17-19-20-19-------17-15--------------------|
A|-----------------------------------------------|
E|-----------------------------------------------|

e|-----------------------------------------------|
B|-----------------------------------------------|
G|-12---12---------------------------------------|
D|---------15-12----8----8--10--12---12-10--8-12-|
A|-----------------------------------------------|
E|-----------------------------------------------|

e|-----------------------------------------------|
B|-----------------------------------------------|
G|-12-14-15----12-12-14-15---15------14----------|
D|-----------------------------------------------|
A|-----------------------------------------------|
E|-----------------------------------------------|

e|-----------------------------------------------|
B|-----------------------------------------------|
G|-----------------------------------------------|
D|-17-17-19-20-19-------17-15--------------------|
A|-----------------------------------------------|
E|-----------------------------------------------|

e|-----18-18--15---------18-18---------18-17-----|
B|-16---------------18--------------18-----------|
G|-----------------------------------------------|
D|-----------------------------------------------|
A|-----------------------------------------------|
E|-----------------------------------------------|

e|-----------------------------------------------10-13-15-|
B|-15-15-18-20---20---------------------------------------|
G|--------------------------------------------------------|
D|--------------------------------------------------------|
A|-----------------------12-12-15-17---20--17-------------|
E|--------------------------------------------------------|

        
Comments

@Leifur (August 02, 2014 at 11:59 AM)

The tab is easy to comprehend till I reach the fifth line, which to me is incomprehensible when I try to play with the actual song. I don't see nor hear where those notes fit in the song. Can anybody help me?


@hj (March 10, 2017 at 5:06 PM)

It was fine at first but then when you got to the pre-chorus and chorus it just became all whack-O.


@GuitarJoe48 (May 04, 2018 at 2:57 AM)

Same comments as above. Why did you change keys?


@Kadamiy (August 21, 2018 at 3:06 PM)

Give them a break... they were young.