Gametabs
Home
Tabs
Random

Petalburg City

Average rating: 4.750

4 ratings

Composer:

Tabber:

Style:

Instrument:

Created: January 27, 2010 at 12:00 AM

            Petalburg City
Pokemon Ruby/ Sapphire
Tabbed by Codykins

e-------------------------------------------------
B----------8-9--11--9----9h11p9--8—8h9p8--6-------
G---8--10-----------------------------------------
D-------------------------------------------------
A-------------------------------------------------
E-------------------------------------------------

e-----9-8-6--6h8h9--------------------------------
B---9--------------6--6h8h9--8--6-----------------
G----------------------------------8--------------
D-------------------------------------------------
A-------------------------------------------------
E-------------------------------------------------

e---8--8h9p8--6--6h8p6------------11-9--9h11p9--8--8h9p8--6---8-9--------
B-----------------------9-----6-9----------------------------------------
G------------------------------------------------------------------------
D------------------------------------------------------------------------
A------------------------------------------------------------------------
E------------------------------------------------------------------------

e--------------1-2-1------1------------------------
B---1-2-4----4----------1---1-2------1-2-4--2--1---
G----------------------------------3-------------3-
D--------------------------------------------------
A--------------------------------------------------
E--------------------------------------------------

e---11----11-13-14-13-------11-13----------------------------------------
B------------------------13-------14----14-13-14-11--13--14-13-11--------
G------------------------------------------------------------------------
D------------------------------------------------------------------------
A------------------------------------------------------------------------
E------------------------------------------------------------------------

This is my first tab uploaded to GameTabs.net.

        
Comments

@snester94 (November 27, 2010 at 6:32 PM)

it's perfect. great job


@SlyCoper (April 26, 2013 at 4:32 PM)

Never mind


@zhouster (November 16, 2019 at 12:34 AM)

in the third line, the 2nd B9 (B6 -> B9 ->e11) should be an e8 instead!

e---8--8h9p8--6--6h8p6----------8--11-9--9h11p9--8--8h9p8--6---8-9----- B------------------------------9-----6------------------------------------------ G------------------------------------------------------------------------------- D------------------------------------------------------------------------------- A------------------------------------------------------------------------------- E-------------------------------------------------------------------------------