Gametabs
Home
Tabs
Random

Route 1

Average rating: 4.750

4 ratings

Composer:

Tabber:

Style:

Instrument:

Created: January 26, 2010 at 12:00 AM

            Route 1 Bass
Pokemon Red/ Blue
Tabbed by Codykins

G------------------------------------------------------------------------
D--0-----------0-----------------------------0---------------------------
A-----4--2--0-----0--2--0--4--0--2--3--4--0-----0------------------------
E------------------------------------------------------------------------

G------------------------------------------------------------------------
D--0-----------0-----------------------------0---------------------------
A-----4--2--0-----0--2--0--4--2--0--2--4--0-----0------------------------
E------------------------------------------------------------------------

G------------------------------------------------------------------------
D--0-------------------0--------------0----------------------------------
A------------0----4--------------0---------------------------------------
E-------3-------------------3--------------------------------------------

        
Comments

@isa iv (July 18, 2011 at 11:11 PM)

the bass is incredible easy and incredible


@PhonixDown26 (September 16, 2012 at 2:54 PM)

This is my childhood right here, condensed into three lines of tablature. Excellent work.