Gametabs
Home
Tabs
Random

Lavender Town

Average rating: 4.000

2 ratings

Composer:

Tabber:

Style:

Instrument:

Created: December 31, 2010 at 12:00 AM

            Lavender Town from Pokemon R/Y/B
Composed by Junichi Masuda
Tabbed by ZakDank
Dec. 31st 2010

     W                   W                   W                 
E||-------------------|-------------------|-------------------|
B||-------------------|-------------------|-------------------|
G||-------------------|-------------------|-------------------|
D||-------------------|-------------------|-------------------|
A||-------------------|-------------------|-------------------|
E||-------------------|-------------------|-------------------|


  W                   H        H           H        H         
-------------------|--3--------3--------|--0--------0--------|
-------------------|--------------------|--------------------|
-------------------|--------------------|--------------------|
-------------------|--------------------|--------------------|
-------------------|--------------------|--------------------|
-------------------|--------------------|--------------------|


  Q    Q    Q    Q       H        H           H        H         
--3----2----0----7----|--------------------|--3--------3--------|
----------------------|--------------------|--------------------|
----------------------|--6--------6--------|--------------------|
----------------------|--------------------|--------------------|
----------------------|--------------------|--------------------|
----------------------|--------------------|--------------------|


  H        H           Q    Q    Q    Q       H        H         
--2--------2--------|--7----3----2----7----|--8--------8--------|
--------------------|----------------------|--------------------|
--------------------|----------------------|--------------------|
--------------------|----------------------|--------------------|
--------------------|----------------------|--------------------|
--------------------|----------------------|--------------------|


  H        H           H        H           Q    Q    Q    Q     
--------------------|--------------------|-----------------7----|
--8--------8--------|--------------------|--8----7----5---------|
--------------------|--9--------9--------|----------------------|
--------------------|--------------------|----------------------|
--------------------|--------------------|----------------------|
--------------------|--------------------|----------------------|


  H        H           H        H           H        H         
--------------------|--3--------3--------|--2--------2--------|
--------------------|--------------------|--------------------|
--6--------6--------|--------------------|--------------------|
--------------------|--------------------|--------------------|
--------------------|--------------------|--------------------|
--------------------|--------------------|--------------------|


  Q    Q    Q    Q       H        H           W                 
--7----3----2----7----|--------------------|-------------------|
----------------------|--------------------|-------------------|
----------------------|--5--------5--------|-------------------|
----------------------|--------------------|-------------------|
----------------------|--------------------|-------------------|
----------------------|--------------------|-------------------|


  W                   W                   W                 
-------------------|-------------------|-------------------|
-------------------|-------------------|-------------------|
-------------------|-------------------|-------------------|
-------------------|-------------------|-------------------|
-------------------|-------------------|-------------------|
-------------------|-------------------|-------------------|


  H        H           H        H           Q    Q    Q    Q     
--3--------3--------|--0--------0--------|--3----2----0----7----|
--------------------|--------------------|----------------------|
--------------------|--------------------|----------------------|
--------------------|--------------------|----------------------|
--------------------|--------------------|----------------------|
--------------------|--------------------|----------------------|


  H        H           H        H           H        H         
--------------------|--3--------3--------|--2--------2--------|
--------------------|--------------------|--------------------|
--6--------6--------|--------------------|--------------------|
--------------------|--------------------|--------------------|
--------------------|--------------------|--------------------|
--------------------|--------------------|--------------------|


  Q    Q    Q    Q       H        H           H        H         
--7----3----2----7----|--8--------8--------|--------------------|
----------------------|--------------------|--8--------8--------|
----------------------|--------------------|--------------------|
----------------------|--------------------|--------------------|
----------------------|--------------------|--------------------|
----------------------|--------------------|--------------------|


  H        H           Q    Q    Q    Q       H        H         
--------------------|-----------------7----|--------------------|
--------------------|--8----7----5---------|--------------------|
--9--------9--------|----------------------|--6--------6--------|
--------------------|----------------------|--------------------|
--------------------|----------------------|--------------------|
--------------------|----------------------|--------------------|


  H        H           H        H           Q    Q    Q    Q     
--3--------3--------|--2--------2--------|--7----3----2----7----|
--------------------|--------------------|----------------------|
--------------------|--------------------|----------------------|
--------------------|--------------------|----------------------|
--------------------|--------------------|----------------------|
--------------------|--------------------|----------------------|


  H        H           W                   W                 
--------------------|-------------------|-------------------|
--------------------|-------------------|-------------------|
--5--------5--------|-------------------|-------------------|
--------------------|-------------------|-------------------|
--------------------|-------------------|-------------------|
--------------------|-------------------|-------------------|


  W                   W                  
-------------------|-------------------||
-------------------|-------------------||
-------------------|-------------------||
-------------------|-------------------||
-------------------|-------------------||
-------------------|-------------------||

        
Comments

@Yamato (January 25, 2011 at 9:06 PM)

Sound equal the game... but it Would be perfect if you had posted the second guitar tab.