Gametabs
Home
Tabs
Random

New Bark Town

Average rating: 5.000

14 ratings

Composer:

Tabber:

Style:

Instrument:

Created: October 17, 2011 at 12:00 AM

                                            New Bark Town                                   


(Capo 2)
     H        Q    E  E       E  E  E  E  E  E  E  E   
E||----------------------||---0-----3-----1--0-----1--|
B||----------------1--3--||---------------------3-----|
G||----------------------||*-----------0--------------|
D||----------------------||*-----2--------0-----------|
A||----------------------||---3-----------------------|
E||----------------------||---------------------------|


  E  E  E  E  E  E  E  S  S    E  E  E  E  E  E  E  E   
--0-------------------------|--------------------------|
-----------1----------------|--------1-----3--1-----1--|
--------0-----0-----0--0h-1-|--2--------2--------4-----|
-----2-----------2----------|--------------------------|
--3-----------3-------------|-----3--------------------|
----------------------------|--1-----------2-----------|


  E  E  E  E  E  E  E  S  S    E  E  E  E  E  E  E  E   
-----------0----------------|--0-----3-----4--3-----4--|
--3-----------3--------1h-3-|--------------------6-----|
--------0--------0----------|-----------0--------------|
-----0--------------0-------|-----2--------3-----------|
----------------------------|--3-----------------------|
--3-------------------------|--------------------------|


  E  E  E  E  E  E  E  S S    E  E  E  E  E  E  E  E   
--3--------7--8----------0-|--1--------3--5--------5--|
-----------------------3---|--------1-----------4-----|
--------5-----------5------|-----2-----------5--------|
-----5-----------5---------|--3-----------4-----------|
--3-----------3------------|--------------------------|
---------------------------|--------------------------|


  E  E  E  S  S E  E  E  E     E  E  E  E  E  E  E  E   
--3--------1p-0-------------|--5--------3--L-----------|
----------------3--------0--|--------6-----------6-----|
--------0-------------0-----|-----5-----------5-----5--|
-----0-------------0--------|--3-----------------------|
----------------------------|--------------------------|
--3-------------3-----------|--------------------------|


  E  E  E  E  E  E  E  E     E  E  E  E  E  E  E  E   
--------------------------|--5--------3--L-----8-----|
--3--------3--L-----------|--------6-----------------|
--------0--------0-----0--|-----5-----------5-----5--|
-----0--------------0-----|--3-----------------------|
--------------------------|--------------------------|
--3-----------------------|--------------------------|


  E  E  E  E  E  E  E  E     E  E  E  E  E  E  E  E   
--7--------7--L-----------|--5--------3--L-----------|
--------8--------8-----8--|--------6-----------6-----|
-----7--------------7-----|-----5-----------5-----5--|
--5-----------------------|--3-----------------------|
--------------------------|--------------------------|
--------------------------|--------------------------|


  E  E  E  E  E  E  E  E     E  E  E  E  E  E  E  E   
--------------------------|--5--------3--L-----8-----|
--3--------3--L-----------|--------6-----------------|
--------0--------0-----0--|-----5-----------5-----5--|
-----0--------------0-----|--3-----------------------|
--------------------------|--------------------------|
--3-----------------------|--------------------------|


   E  E  E   E   E  E  E  S  S          
--10--------10---L--------------||----||
---------8----------8-----1h-3--||----||
------7----------------7-------*||----||
---5---------------------------*||----||
--------------------------------||----||
--------------------------------||----||

        
Comments

@Max_depa (October 17, 2011 at 3:53 PM)

oow so much memories**


@150link (October 17, 2011 at 4:43 PM)

great job =D


@Lemoncobbler (October 17, 2011 at 11:49 PM)

so much nostalgia O_O


@sleepytime (October 18, 2011 at 2:43 AM)

aw yeah, awesome tab


@bubblingbeebles (October 19, 2011 at 7:33 PM)

perfect!