Gametabs
Home
Tabs
Random

Turnabout Sisters' Ballad

Average rating: 5.000

19 ratings

Composer:

Tabber:

Style:

Instrument:

Created: August 28, 2011 at 12:00 AM

            
Turnabout Sisters' Ballad                             
~Phoenix Wright: Ace Attorney~
Music by: Masakazu Sugimori
Arranged by: Justin Lincoln




     Q    Q    Q    Q         E.  S E  E  Q    S S S S  
E||------------0----1----||---3---3-L------------0-----|
B||----------------------||---3---3-L--1--L----L---3-1-|
G||----------------------||*--0---0-L--0--L------------|
D||----------------------||*---------------------------|
A||----------------------||----------------------------|
E||----------------------||---0-----------1------------|


  E  E  E  E  S E.  S S S S    E.  S E  E  Q    S S S S  
------------------------0-1-|--3---3-L------------0-----|
--0--1--3--3--L-1---L-------|--3---3-L--1--L----L---3-1-|
--0-----4--4--L-2-----0-----|--0---0-L--0--L------------|
----------------------------|---------------------------|
--------------0-------------|---------------------------|
--3-----4-------------------|--0-----------1------------|


  E.  S E  E  E  E.  S S S    E.  S E  E  Q    S S S S  
------3-L--1--L--0-----0-1-|--3---3-L------------0-----|
--3--------3--L--1---------|--3---3-L--1--L----L---3-1-|
--4---5-L------------2-----|--0---0-L--0--L------------|
---------------------------|---------------------------|
--------------0------------|---------------------------|
--3-----4------------------|--0-----------1------------|


  E  E  E  E  E.  T T E  S S    E.  S E    E    Q      S S S S  
-------------------------0-1-|--3---3-L--------------------1-0-|
--0--1--3--3--L---1-0-1------|--3---3-L--<>1--<>L----<>L-------|
--0-----4--4--L--------------|--0---0-L------------------0-----|
-----------------------------|---------------------------------|
--------------0--------------|---------------------------------|
--3-----4--------------------|--0----------1----L--------------|


  E  E  E  E  Q.     E     Q.     E  Q    S S S S    Q.     E  E    E  S S S S  
-----0------------------|---------3--L----L-1-0-1-|--3------------7g8--7-------|
--3-----3--1--L------1--|--3----------------------|--1------1--L---------8---1-|
--4--5--4--2--L---------|--2----------------------|--0---------------------0---|
------------------------|--3----------------------|----------------------------|
-----------0--L---------|--1----------------------|--0-------------------------|
--3-----4---------------|-------------------------|----------------------------|


  Q.     E  Q    S S S S    E  E  E  E  S S E  S S S S  
---------3--L----L-1-0-1-|--3--1--0--------------------|
--3----------------------|--1--------1--L---1--0-1-1-0-|
--2----------------------|--0-------------0------------|
--3----------------------|-----------------------------|
--1----------------------|--0--------------------------|
-------------------------|-----------------------------|


  S S S S S S S S S S S S S S S S    S S S S S S S S S S S S E  E   
--------0---------3-0-------------|--0---1---0-------------0-L-----|
--1---1-----1-3-------3---0---1-3-|--0-----------1-----------------|
----0-----0-----0-------5---0-----|--0-0---0---0-0-0-----0------2--|
----------------------------------|------------------0-2-----------|
----------------------------------|--------------------------------|
--1-----------3---L---------------|--0-----------1---L-------------|


  E  E  E  E  E  E  E  S S    Q    Q    Q    S S S S    
-----------3---------------|---------------------0-1--||
--1-----1-----1-----1--3-1-|--0----3----0-------------||
-----0-----------0---------|-------------------0-----*||
---------------------------|-------------------------*||
---------------------------|--------------------------||
--3------------------------|--3--------------1--------||


  E.  S E  E  Q    Q       W                  
--3---3-L---------------|-------------------||
--3---3-L--1--L----L----|--L----------------||
--0---0-L--0--L----L----|--L----------------||
-------------------2----|--L----------------||
------------------------|-------------------||
--0--------1--L---------|--L----------------||




Duration Legend
---------------
W - whole
H - half
Q - quarter
E - 8th
S - 16th
T - 32nd
X - 64th
. - note dotted
|-n-|  - n-tuplets


Tablature Legend
----------------
L - tied note
g - grace note
AH - artificial harmonic

        
Comments

@Parhelion (August 29, 2011 at 8:07 AM)

The Bear is strong in this one.

edit: And I mean that literally. If someone put this down in front of me with the credits removed, I'd probably still recognize it as your arrangement.


@karathrow (August 31, 2011 at 3:48 AM)

BisonYes.jpg

How do I do 7g8 exactly? According to the legend g=grace note right? I think I have grace notes confused with something else because I have no idea how to do that @_@.


@karathrow (September 02, 2011 at 8:48 AM)

I made some attempts at doing a recording of this but they have all been rife with errors and sound like shit. Hopefully I'll be able to clean it up enough or practice it enough to do this arrangement justice @_@.


@victormon (September 05, 2011 at 7:38 AM)

meow


@GuitarHacker (October 06, 2011 at 2:42 PM)

Can you do pursuit for AA? btw i requested this so thanks for putting it up.