Gametabs
Home
Tabs
Random

The Steel Samurai

Average rating: 5.000

1 ratings

Composer:

Tabber:

Style:

Instrument:

Created: October 13, 2007 at 12:00 AM

            Gyakuten Saiban/Phoenix Wright tab "The Steel Samurai"
	Tabbed by Alex Crocker A.K.A. Orange Nova
  Q=140
 4/4
  Gtr I					 WR WR
|------------|-------------|-------|----|--|--|-----------|-1-----|
|------------|-------------|-------|-1--|--|--|-------1---|---4-1-|
|------------|-------0-(0)-|-(0)-3-|----|--|--|---0-3---3-|-------|
|---0--1---1-|-3-1-3-------|-------|----|--|--|-----------|-------|
|-3------3---|-------------|-------|----|--|--|-----------|-------|
|------------|-------------|-------|----|--|--|-----------|-------|

			   WR WR
|-3-----3-|-1---1-3-------|--|--|-----|----------|---------|-----|
|---4-----|---4---------1-|--|--|-----|----------|---------|-----|
|-----3---|---------0-3---|--|--|---0-|----------|---------|-----|
|---------|---------------|--|--|-----|-3-1-0----|---1-0---|-----|
|---------|---------------|--|--|-3---|--------1-|-3-----1-|-----|
|---------|---------------|--|--|-----|----------|---------|-3---|


|-----|----------|---------|---|-----|-----|---------|---|--------|
|-----|----------|---------|---|-----|-----|---------|---|-1--1---|
|---0-|----1-0---|-0-------|---|-----|---0-|-1-0-1-3-|-0-|--------|
|-----|-3------3-|---3-1-0-|---|-0-3-|-1---|---------|---|--------|
|-3---|----------|---------|-3-|-----|-----|---------|---|--------|
|-----|----------|---------|---|-----|-----|---------|---|--------|


|----------|---------|---|-------|------------|-------------|-----|
|----------|---------|---|-------|------------|-------------|-----|
|-3-1-0----|-----0-1-|-0-|-------|------------|-------------|-----|
|--------3-|-1-3-----|---|---1---|-0-1--3-(3)-|-1-3-1-0-----|-----|
|----------|---------|---|-3---3-|------------|---------1---|-3---|
|----------|---------|---|-------|------------|-----------3-|-----|

WR= Whole Rest
(*)Hold note

        
Comments

@BladeSlasher 777 (October 18, 2007 at 6:33 AM)

Hey could you make a tab for Ema's theme cos based on this one you could make other tabs that are good to


@igiari (October 05, 2009 at 1:30 AM)

COULD YOU PLEASE MAKE MORE PHOENIX WRIGHT TABS?