Gametabs
Home
Tabs
Random

The Fragrance of Dark Coffee

Average rating: No ratings

Composer:

Tabber:

Style:

Instrument:

Created: March 07, 2014 at 12:00 AM

            The Fragrance of Dark Coffee
Turnabout Jazz Soul
Noriyuki Iwadare

Transcribed by Andrew Riley ([email protected])
3/5/2014

I attempted to map the rhythm as best as I could.  As always, listening to the song and knowing when to play what notes is always better than straight up
reading the rhythm I've put down, but it's a nice guide.

       --3--                               --3--
    Q  e e q  e     h  h     Q  e h     h  e e Q     h  q  q     h  e q+e    h  q  q     h q+e  e
G|---------------|--------|----------|------------|-----------|-----------|-----------|-------------|
D|--9------------|--------|-------2--|-----0-1-2--|-----2--6--|--7--------|-----------|-------------|
A|-----9---7--7--|-----1--|--2--2----|--2---------|--2--------|-----4--5--|-----3--7--|--8--12--13--|
E|-------7-------|--3-----|----------|------------|-----------|-----------|--3--------|-------------|

                                  ---3---                                                         ---3---      
    h   q   q      h   h      q   e  e  q  q     h  e  Q     Q  e  q  q      q   q   q   q     Q  e  e  q  q     H  q
G|--------------|----------|------------------|-----------|---------------|-----------------|-----------------|--------|
D|--------------|----------|------------------|-----------|---------------|-----------------|-----7--------6--|--7--8--|
A|--14------14--|--12------|--10--10-------7--|--8--------|--2--------11--|--12--11--10--9--|--8-----8--7-----|--------|
E|------12------|------10--|---------10-8-----|-----8--1--|-----1--0------|-----------------|-----------------|--------|

1:03 walking bass line
    q  q  q  q     q  q  q  q     q  q  q  q     q  q  q  E s     q  q  q  q      q   q   q   q     q  q   q  q     q  q  q  q     h  q  q
G|--------------|--------------|--------------|----------------|---------------|-----------------|---------------|--------------|--r--------|
D|--9--9-----6--|--7-----------|--------------|----------------|---------------|-----------------|-----10--7-----|--------------|--r--------|
A|--------7-----|-----4--5-----|--------3--7--|--8--8----------|-----8--7--11--|--12--11--10--9--|--8---------8--|--7--7--------|--r--------|
E|--------------|-----------5--|--3--6--------|--------8--5-8--|--7------------|-----------------|---------------|--------7--0--|--r--7--5--|

1:37 Saxaphone enters                      --3--                                                     
    h  Q  e     h  q  q     h  q  q     Q  e e q  q     h  e  Q     h  e  Q     h  q  q      Q  e e q  s s    h  q  q      q   q   q   q
G|-----------|-----------|-----------|---------------|-----------|-----------|------------|-----------------|-----------|-----------------|
D|-----2--2--|-----------|--------2--|--3--3-5-7--8--|--9--9-----|--7--------|------------|-----------------|-----------|-----------------|
A|--2--------|--0--5-----|-----3-----|---------------|--------7--|-----7--5--|--8-----10--|--8--3-----------|-------11--|--12--11--10--9--|
E|-----------|--------5--|--3--------|---------------|-----------|-----------|-----8------|-------5-1--1-3--|-7--0------|-----------------|

    Q  e  h     h  q  q     q  q  q  q     q  q  q  q     q   q   q   e  e     q  q   q  q     q  q  q  q      q   q   q   q
G|-----------|-----------|-----------4--|--------------|--------------------|---------------|---------------|-----------------|
D|-----------|-----------|--------2-----|--7-----------|------12--10--------|-----10--------|---------------|-----------------|
A|--8--8--7--|--0--0--2--|--2--2--------|-----7--5--9--|--10----------10----|--8------9-----|-----5-----11--|--12--11--10--9--|
E|-----------|-----------|--------------|--------------|-----------------8--|------------5--|--7-----0------|-----------------|

                                   2:52                                                    --3---              ---3---
    q  s E  q  q     q  q  q  q     h  q  q     h  Q  e     Q  e  h     q  E  E   Q     Q  e e  q   q      Q   e  e  q   q      Q   q   Q
G|----------------|--------------|--r--------|-----------|-----------|---------------|------------------|--------------------|-------------|
D|----------------|--------------|--r--------|--------6--|--7--7-----|--5--8--10-----|------------------|--------------------|-------------|
A|--8----8-----8--|--7--7--------|--r--------|-----------|--------5--|------------7--|--8--8-10-12--13--|--14--14--------11--|--12--12-----|
E|-----8----5-----|--------7--0--|--r--7--6--|--7--0-----|-----------|---------------|------------------|---------10-12------|---------10--|

        ---3---                          ---3---                                         3:41 --3-- --3--                --3--
    Q   e  e  q   q     h  Q  e      Q   e  e  q   q      q   q   q   q     h  h    H+e e     e e e e e Q  s s     e  e  e e q  q     
G|-------------------|------------|--------------------|-----------------|--------|--------|--r-----------------|------------------|
D|------------10-----|------------|--------------------|-----------------|--------|--------|--r-------2-4--6-7--|--9--6------------|
A|--10--13-10-----7--|--8--8--12--|--14-----14-----11--|--12--11--10--9--|--8--7--|--------|--r-2-4-5-----------|--------7-5-7--4--|
E|-------------------|------------|------13----12------|-----------------|--------|--5--6--|--r-----------------|------------------|

                                                                     ---3---             --3--  
    e  e  q  q  q    H+e s s      e  Q  s  e   s  e s  s      s  E   e  e  q  q  s s     e e H  e     h  q  q     h  q  q
G|--r--------------|--5--9-10--|--9------------------------|---------------------2-4--|--5-7-9-----|-----------|--r--------|
D|--r-----7--5-----|-----------|-----9--11-12--10-9--------|--------------------------|---------7--|--9--------|--r--------|
A|--r-----------3--|-----------|--------------------12-11--|--12----------------------|------------|-----7--7--|--r--------|
E|--r--5-----------|-----------|---------------------------|-----12--10-12-8--5-------|------------|-----------|--r--7--6--|

 4:14
    h  q  q     Q  e h     Q  e q  q     h  Q  e     h  q  q     h  h     h  q  q     h  Q  s s     Q  e q  q      q   q   q   q
G|-----------|----------|-------------|-----------|-----------|--------|-----------|-------------|--------------|-----------------|
D|-----2--6--|--7--7----|--5----------|-----7--8--|-----2--6--|--7-----|--5--------|-------------|--------------|-----------------|
A|--2--------|-------5--|-----1-3--7--|--8--------|--2--------|-----5--|-----3--7--|--8--8--8----|-----5-7--11--|--12--11--10--9--|
E|-----------|----------|-------------|-----------|-----------|--------|-----------|----------6--|--7-----------|-----------------|

 4:51
    Q  e h    H+e e     h  q  q     h  h     h  q  q     h  Q  s s     Q  e  q  q      q   q   q   q    h+q E s     H  q     w     e h+e
G|----------|--------|-----------|--------|-----------|-------------|---------------|-----------------|----------|--------|-----|--r-----|
D|----------|--------|-----2--6--|--7-----|--5--------|-------------|---------------|-----------------|----------|--------|-----|--r-----|
A|--8--8-7--|--------|--2--------|-----5--|-----3--7--|--8--8--8----|-----5--7--11--|--12--11--10--9--|--8----8--|--7--7--|--8--|--r-----|
E|----------|--5--6--|-----------|--------|-----------|----------8--|--7------------|-----------------|-----7----|--------|-----|--r--6--|


    e h+e
G|--r-----|
D|--r-----|
A|--r-----|
E|--r--5--|




Legend

--3-- = triplets


Rhythm:
  w = whole note            W = dotted whole
  h = half note             H = dotted half
  q = quarter note          Q = dotted quarter
  e = eighth note           E = dotted eighth
  s = sixteenth note        S = dotted sixteenth
  t = 32nd note             T = dotted 32nd
  x = 64th note             X = dotted 64th
  ^ = triplet

        
Comments

No comments yet