Gametabs
Home
Tabs
Random

Soranosuke Hoshikage / Marvin Grossberg

Average rating: 5.000

2 ratings

Composer:

Tabber:

Style:

Instrument:

Created: January 01, 2018 at 12:00 AM

            "Soranosuke Hoshikage ~ Old Age, Regret, Retribution"
Phoenix wright - Ace attorney
Tab by Champinoir
28/12/17

e---------------------------------------------------------
B----3----------------------------3-----------------------
G-----------3-2--0-2-3-2-0---------------3-2--0-2-0-3-2-0-
D--------------------------2-0----------------------------
A---------------------------------------------------------
E-0----0-3---------------------0----0-3-------------------

e---------------------------------------------------------
B----3----------------------------3-----------------------
G-----------3-2--0-2-3-2-0---------------3-2----0-3-2-0-2-
D--------------------------2-0----------------2-----------
A---------------------------------------------------------
E-0----0-3---------------------0----0-3-------------------

e----0-3-0-3-5-6-5-3----10-11-12-6-5-3---0----3-5-3-6-5-3-0------0-----2-
B--------------------------------------3--------------------3------------
G------------------------------------------------------------------------
D--------------------------------------------------------------------0---
A--------------------3----------------------------------------3----------
E-0----------------------------------------0-----------------------------

e----0-3-0-3-5-6-5-3----10-11-12--6--5--3-----0-3-0-6-5-3-0------0-----2-
B-----------------------------------------------------------3------------
G------------------------------------------------------------------------
D--------------------------------------------------------------------0---
A--------------------3----------------------------------------3----------
E-0----------------------------------------0-----------------------------
        
Comments

No comments yet