Gametabs
Home
Tabs
Random

Velvet Room/Aria of the Souls

Average rating: No ratings

Composer:

Tabber:

Style:

Instrument:

Created: July 18, 2020 at 12:00 AM

            Title: Velvet Room/Aria of the Souls (Marie's Poem)
SubTitle: Persona 4 Gold
Artist: Cecil Chau (GuitarSVD)
Music: Shoji Meguro
Tempo = 80
Nylon Guitar

Legend
L - tied note
x - dead note
h - hammer on/pull off
b - bend
s - slide
~ - vibrato
g - ghost note
> - accentuated note
t - trill
M - palm mute
. - staccato
P - popping (bass)
S - slapping (bass)
+ - tapping
W - wide vibrato
< - fade in
w - whammy bar
= - tremolo picking
v - brush up
^ - brush down
V - pick stroke up
n - pick stroke down

                          
E |--10----9--10---------|
B |----------------------|
G |--------------7--6----|
D |--------------9--7----|
A |----------------------|
E |----------------------|

                                                                             
--7-----------------------------------------7--9----------------------------|
-----------------------------------------------------0-----7--12------------|
--------------------------------------------------------7-------------------|
--------------------------------------------------5-------------------------|
----------------------------------------------------------------------------|
----------------------------------------------------------------------------|

                                                                         
--10----9--14---------------------------|-------------------------------|
--------------------7--------7L-7--12---|--12-------------12------------|
-----------------7-----7----------------|-----0--------12---------------|
--------------9-----------7-------------|--------9--12------------------|
----------------------------------------|-----------------------9-------|
----------------------------------------|-------------------------------|

         ^                                                                   
--------------------------14----------------12------------------------------|
--------------------------12-------------------15---------------------------|
--------------------12------------------------------------------------------|
--------------------------------------------------------9-------------------|
-----------------------------------------------------10---------------------|
--------------------------------------------------12------------------------|

                                
-----------------9--10L12-9----|
--14----------12---------------|
-----------14------------------|
--------14---------------------|
-----12------------------------|
-------------------------------|

                                                                             
--------------------------12----------------10-9----------------------------|
--10-------------------------------------------------------10-10------------|
--------------------------------------------------------11----11------------|
-----------------------------------------------------11---------------------|
--------------------------------------------------9-------------------------|
----------------------------------------------------------------------------|

                                         
--7--------10----------7----------------|
--------------0-----10----------10------|
-----------------11----------9----------|
--------------------------7-------------|
----------------------------------------|
----------------------------------------|

                                                     
--------10----9--------10---------------------------|
--8-----------------------------------------10------|
--------------------------0--------------9----------|
-----------------------------12L12------------------|
--------------------------------------12------------|
----------------------------------------------------|

                                         
-----------------0--2-------------------|
--3-----2--3-----------3----------------|
-----------------------------2L-2--2----|
--------------0-------------------------|
--------------------------4-------------|
----------------------------------------|

                                                                             
----------------------------------------------------------------------------|
--0-----------------------------------------0--2-----------2--3-------------|
--------------------------------------------------------4-------------------|
-----------------------------------------------------4----------------------|
--------------------------------------------------2-------------------------|
----------------------------------------------------------------------------|

                                         
-----------2----------------------------|
--3-----2--------------3----------------|
--------------------4-----------2-------|
-----------------4-----------2----------|
--------------2-----------0-------------|
----------------------------------------|

                                     ^
----------------------------------------------------------------------------|
--0-----------------------------------------0--2--------------0-------------|
--------------------------------------------------------0--2----------------|
-----------------------------------------------------0----------------------|
----------------------------------------------------------------------------|
--------------------------------------------------3-------------------------|


-----------2----------------------------|
--3-----2-------------------------------|
--------------------0--4----------------|
-----------------0-----------------4----|
-----------------------------2--4-------|
--------------3-----------2-------------|


----------------------------------------|
--0-----2--3-----------3----------------|
--------------------4-----------2-------|
-----------------4-----------2----------|
--------------2-----------0--------0----|
----------------------------------------|


-----2--0-------------------------------|-------------------------------|
-----------3-----------0-----------0----|--2----------------------------|
--0-----------------0-----------1-------|-------------------------------|
-----------------0-----------0----------|--------0----------------------|
----------------------------------------|-----0-----4--2--0-------------|
--------------3-----------4-------------|-----------------------3-------|


--5L---------------------------|
-----2--------------2--3--5----|
-----2--------2--4-------------|
-----------4-------------------|
--------4----------------------|
-----2-------------------------|


--5--------3--2--3--5--2----------------------------|
-----------------------------------2--3--2----------|
--------------------------------4-----------4-------|
-----------------------------4-----------------4----|
--------------------------2-------------------------|
----------------------------------------------------|


--3L----------------------0----|
--------------------0--3-------|
-----------------0-------------|
-----------2--4----------------|
--------2----------------------|
-----0-------------------------|


--3--------3--2--0----------------------------------|
--------------------3--2--------------3L-3----------|
--------------------------------2L-2--------2-------|
-----------------------------2-----------------2----|
--------------------------0-------------------------|
----------------------------------------------------|


--5L----------------5--2----------------------------|
--------------------------2--------------2--3--5----|
--------------------------2--------2--4-------------|
--------------------------------4-------------------|
-----------------------------4----------------------|
--------------------------2-------------------------|


--------------------------------------------0--2----------------------------|
--3L----------------------------------3--------------------2h-3h-2----------|
--------------------------------------------------------4-----------4-------|
-----------------------------------------------------4-----------------4----|
--------------------------------------------------2-------------------------|
----------------------------------------------------------------------------|


--3--2--0-----------0--2----------------------------|
-----------3--2--3----------------------------------|
--------------------------------------0-----2-------|
--------------------------------2--4----------------|
-----------------------------2----------------------|
--------------------------0-------------------------|


--------------------------0----|--2-------|--10----9--10---------|
--2--------------------2-------|-----2----|----------------------|
--------------------4----------|-----3----|--------------7--6----|
--------------2--4-------------|----------|--------------9--7----|
--------2--4-------------------|----------|----------------------|
-----2-------------------------|-----2----|----------------------|


--7-----------------------------------------7--9----------------------------|
-----------------------------------------------------0-----7--12------------|
--------------------------------------------------------7-------------------|
--------------------------------------------------5-------------------------|
----------------------------------------------------------------------------|
----------------------------------------------------------------------------|


--10----9--14---------------------------|
--------------------7--------------12---|
-----------------7-----7-----9L-9-------|
--------------9-----------7-------------|
----------------------------------------|
----------------------------------------|


----------------------------------------------------------------------------|
--12----------------------------------------0--2--------------12------------|
--------------------------------------------------0--------12---------------|
-----------------------------------------------------9--12------------------|
----------------------------------------------------------------------------|
----------------------------------------------------------------------------|


-----------2----------------------------|
--3-----2-------------------------------|
--------------------0--4----------------|
-----------------0-----------------4----|
-----------------------------2--4-------|
--------------3-----------2-------------|


----------------------------------------|
--0-----2--3-----------3----------------|
--------------------4-----------2-------|
-----------------4-----------2----------|
--------------2-----------0--------0----|
----------------------------------------|


----------------------------------------------------|----------||
--------3-----2--------3-----------0----------------|--3-------||
--0-----------------------------0-----------2-------|----------||
-----------------------------0-----------2----------|-----0----||
--------------------------------------0-------------|----------||
--------------------------3-------------------------|----------||


        
Comments

No comments yet