Gametabs
Home
Tabs
Random

Next to You

Average rating: 4.667

3 ratings

Composer:

Tabber:

Style:

Instrument:

Created: December 30, 2014 at 12:00 AM

            NEXT TO YOU (Fingerstyle Tab)
Parasyte -the maxim- (Kiseijuu: Sei no Kakuritsu)
Ken Arai
Arranged by: Jan-Jan Kabigting (JanJanKabigting)

Original: https://www.youtube.com/watch?v=afs4EfLyTzI
I recommend using a glider capo because the song modulates from E minor to F minor.

                                  NEXT TO YOU                                   


                                                                        Ken Arai
Track 1 (Capo 2)
Drop D Tuning
Tempo: 110


     ^             ^                ^             ^             
     E  E  E  S  S E  E  E  S  S    E  E  E  S  S E  E   E  E   
E||--1-----1--3S-5-3--------1p-0-|--1--------3p-1-0---------0--|
B||--3--3----------3-----3-------|--1-----1-------1--3p--1-----|
G||--2-------------3--3----------|--0--0----------0------------|
D||--0---------------------------|-----------------------------|
A||--0-------------1-------------|--3-------------3------------|
D||--0---------------------------|-----------------------------|


  ^             ^                ^             ^              
  E  E  E  S  S E  E  E  S  S    E  E  E  S  S E  E   E   E   
--1-----1--3S-5-3--------1p-0-|--0--------3p-1-0--6p--5p--0--|
--3--3----------3-----3-------|--1-----1-------5-------------|
--2-------------3--3----------|--0--0----------5-------------|
------------------------------|------------------------------|
----------------1-------------|--3-------------3-------------|
--0---------------------------|------------------------------|


  ^          PH ^                ^            ^     ^      
  E  E  E    E  E  E  E  S  S    E  E  E  S S E  E  E  E   
--1-----1-------3--------1p-0-|-----------3---8-----5--3--|
--3--3-----<>1--3-----3-------|--5----------6-6-----5-----|
--2-------------3--3----------|--5-----5------5-----------|
------------------------------|--5--5------------3--------|
----------------1-------------|--3------------------------|
--0---------------------------|---------------3-----2-----|


  ^             ^                ^             ^              
  E  E  E  S  S E  E  E  S  S    E  E  E  S  S E  E   E   E   
--1-----1--3S-5-3--------1p-0-|--0--------3p-1-0--6p--5p--0--|
--3--3----------3-----3-------|--1-----1-------5-------------|
--2-------------3--3----------|--0--0----------5-------------|
------------------------------|------------------------------|
----------------1-------------|--3-------------3-------------|
--0---------------------------|------------------------------|


  ^     ^       ^     ^          ^     ^       ^     ^      
  E  E  E  S  S E  E  E  S  S    E  E  E  S  S E  E  E  E   
--1-----1--3S-5-3-----3--1p-0-|--1-----1--3p-1-0--------0--|
--3--3--3-------3-----3-------|--1-----1-------1--3--1-----|
--2-----2-------3--3--3-------|--0--0--0-------0-----0-----|
--0---------------------------|----------------------2-----|
--0-----x-------1-----x-------|--3-----x-------3-----x-----|
--0-----x-------------x-------|--------x-------------x-----|


  ^     ^       ^     ^          ^     ^       ^     ^      
  E  E  E  S  S E  E  E  S  S    E  E  E  S  S E  E  E  E   
--1-----1--3S-5-3-----3--1p-0-|--0--------3p-1-0--6--5-----|
--3--3--3-------3-----3-------|--1-----1-------5-----5--5--|
--2-----2-------3--3--3-------|--0--0--0-------5-----5-----|
------------------------------|--------2-------------------|
--------x-------1-----x-------|--3-----x-------3-----x-----|
--0-----x-------------x-------|--------x-------------x-----|


  ^     ^     ^     ^          ^     ^      ^     ^      
  E  E  E  E  E  E  E  S  S    E  E  E  S S E  E  E  E   
-----------8--3-----3--1p-0-|-----------3---8-----5--3--|
--6-----6-----3-----3-------|--5-----5----6-6-----5-----|
--7--7--7-----3--3--3-------|--5-----5------5-----------|
--7-----7-------------------|--5--5--5------------------|
--------x-----1-----x-------|--3-----x------------------|
--0-----x-----------x-------|--------x------3--3--2-----|


  ^     ^       ^     ^          ^     ^       ^     ^      
  E  E  E  S  S E  E  E  S  S    E  E  E  S  S E  E  E  E   
--1-----1--3S-5-3-----3--1p-0-|--0--------3p-1-0--6--5-----|
--3--3--3-------3-----3-------|--1-----1-------5-----5--5--|
--2-----2-------3--3--3-------|--0--0--0-------5-----5-----|
------------------------------|--------2-------------------|
--------x-------1-----x-------|--3-----x-------3-----x-----|
--0-----x-------------x-------|--------x-------------x-----|


        ^           ^              ^           ^       
  E  E  E  E  E  E  E  E     E  E  E  E  E  E  E   E   
--1-----1-----1-----0-----|--------------1-----0h--1--|
--3--3--3--3--3--3--3--3--|--3-----3-----3-----3------|
--2-----2-----2-----2-----|--3-----3-----3-----3------|
--------0-----------0-----|--3--3--3--3-----3--3------|
--------x-----------x-----|--1-----x-----1-----x------|
--0-----x-----0-----x-----|--------x-----------x------|


        ^           ^              ^           ^       
  E  E  E  E  E  E  E  E     E  E  E  E  E  E  E   E   
--3-----5-----6-----5-----|--5-----5-----3-----3p--1--|
--5-----5-----5-----5-----|--6-----6-----1-----1------|
--5--5--5--5--5--5--5--5--|--5--5--5--5--0--0--0------|
--------------------------|--------5-----------2------|
--3-----x-----3-----x-----|--------x-----------x------|
--------x-----------x-----|--3-----x-----2-----x------|


        ^           ^              ^           ^      
  E  E  E  E  E  E  E  E     E  E  E  E  E  E  E  E   
--1-----1-----1-----3-----|--------x-----------x--1--|
--3--3--3--3--3--3--3--3--|--3-----3-----3-----3-----|
--2-----2-----2-----2-----|--3-----3-----2-----0-----|
--------0-----------0-----|--3--3--3--3--3--3--3--3--|
--------x-----------x-----|--1-----1-----1-----1-----|
--0-----x-----0-----x-----|--------x-----------x-----|


        ^           ^              ^           ^      
  E  E  E  E  E  E  E  E     E  E  E  E  E  E  E  E   
--5-----3-----8-----6--5--|--------6--5--3--5--3-----|
--5-----5-----6-----5-----|--6-----3-----3-----3--6--|
--5--5--5--5--5--5--5-----|--2--2--2--2--2--2--2--2--|
--------------------------|--0-----0-----------0-----|
--3-----x-----3-----x-----|--------x-----------x-----|
--------x-----------x-----|--0-----x-----0-----x-----|


        ^           ^              ^           ^      
  E  E  E  E  E  E  E  E     E  E  E  E  E  E  E  E   
--------x-----------1--3--|--3-----x--------3--5--6--|
--3-----3-----3-----3-----|--5-----5--3--6-----5-----|
--3-----3--3--2-----3-----|--5--5--5--5--5--5--5--5--|
--3--3--3--3--3--3--3--3--|--------5-----5-----------|
--1-----1-----1-----x-----|--3-----3-----3-----x-----|
--------x-----------x-----|--------x-----------x-----|


        ^           ^              ^           ^      
  E  E  E  E  E  E  E  E     E  E  E  E  E  E  E  E   
--1-----3--1--0-----1--3--|--3-----x--3--1--0-----1--|
--3-----3-----3-----3-----|--2-----2-----2-----3-----|
--2--2--2--2--2--2--2--2--|--2--2--2--2--2--2--2--2--|
--------0-----------0-----|--------2-----------2-----|
--------x-----------x-----|--0-----0-----0-----0-----|
--0-----x-----0-----x-----|--------x-----------x-----|


        ^           ^              ^           ^      
  E  E  E  E  E  E  E  E     E  E  E  E  E  E  E  E   
--------x-----------x-----|--3-----x--0--0-----3--6--|
--3-----3--3--3-----3-----|--5-----5-----5--6--5-----|
--3-----3-----3--2--0-----|--5--5--5--5--5--5--5--5--|
--3--3--3--3--3-----3--3--|--------5-----------5-----|
--1-----1-----1--1--1--1--|--3-----3-----3-----x-----|
--------x-----------x-----|--------x-----------x-----|


        ^           ^              ^           ^      
  E  E  E  E  E  E  E  E     E  E  E  E  E  E  E  E   
--5--------1--0-----1--3--|--5-----3-----6-----5-----|
--3-----3-----3-----3-----|--2-----2-----2-----2-----|
--2--2--2--2--2--2--2--2--|--2--2--2--2--2--2--2--2--|
--------0-----0-----0-----|--------2-----2-----2-----|
--------x-----------x-----|--0-----x-----------x-----|
--0-----x-----------x-----|--------x-----------x-----|


                                       ^     ^       ^     ^        
  S  S  S S  S S S S S S S S Q         E  E  E  S  S E  E  E  S  S  
----------------------------------||---1-----1--3S-5-3-----3--1p-0-|
-----------------0---2---3-L-L----||---3--3--3-------3-----3-------|
----------0h-2--------------------||*--2-----2-------3--3--3-------|
--0h-2h-3------0---0---0----------||*--0---------------------------|
----------------------------------||---0-----x-------1-----x-------|
----------------------------------||---0-----x-------------x-------|


  ^     ^       ^     ^        ^     ^       ^     ^        
  E  E  E  S  S E  E  E  E     E  E  E  S  S E  E  E  S  S  
--1-----1--3p-1-0--------0--|--1-----1--3S-5-3-----3--1p-0-|
--1-----1-------1--3--1-----|--3--3--3-------3-----3-------|
--0--0--0-------0-----0-----|--2-----2-------3--3--3-------|
----------------------2-----|------------------------------|
--3-----x-------3-----x-----|--------x-------1-----x-------|
--------x-------------x-----|--0-----x-------------x-------|


  ^     ^       ^     ^        ^     ^     ^     ^        
  E  E  E  S  S E  E  E  E     E  E  E  E  E  E  E  S  S  
--0--------3p-1-0--6--5-----|-----------8--3-----3--1p-0-|
--1-----1-------5-----5--5--|--6-----6-----3-----3-------|
--0--0--0-------5-----5-----|--7--7--7-----3--3--3-------|
--------2-------------------|--7-----7-------------------|
--3-----x-------3-----x-----|--------x-----1-----x-------|
--------x-------------x-----|--0-----x-----------x-------|


  ^     ^      ^     ^        ^     ^       ^     ^        
  E  E  E  S S E  E  E  E     E  E  E  S  S E  E  E  S  S  
-----------3---8-----5--3--|--1-----1--3S-5-3-----3--1p-0-|
--5-----5----6-6-----5-----|--3--3--3-------3-----3-------|
--5-----5------5-----------|--2-----2-------3--3--3-------|
--5--5--5------------------|------------------------------|
--3-----x------------------|--------x-------1-----x-------|
--------x------3--3--2-----|--0-----x-------------x-------|


  ^     ^       ^     ^          ^                        
  E  E  E  S  S E  E  E  E       E  E  E  E  E  E  E  E   
--0--------3p-1-0--6--5------||-----5-----8-----------0--|
--1-----1-------5-----5--5---||--8-----6-----6--6--------|
--0--0--0-------5-----5-----*||--7-----7-----7-----7-----|
--------2-------------------*||--7-----------------------|
--3-----x-------3-----x------||--------5-----------------|
--------x-------------x------||--0-----------------------|


  ^                          ^                        
  E  E  E  E  E  E  E  E     E  E  E  E  E  E  E  E   
-----------5--5-----------|-----------------1-----0--|
--6-----------6--8--8--6--|--3-----------------------|
--7-----7-----7-----7-----|--0--2--------------------|
--7--7--------7-----------|--3-----3-----3-----3-----|
--------------------5-----|--1--------1--------------|
--0-----------------------|--------------------------|


  ^                          ^           ^            
  E  E  E  E  E  E  E  E     E  E  E  E  E  E  E  E   
--------------------1-----|--5--3--3--------------5--|
--3-----------------------|--6--6--6--6--6--6--6-----|
--3-----3--------------2--|--5-----------5--5--5-----|
--3--3-----3-----3--------|--------------3-----------|
--1-----------1-----------|--------------------------|
--------------------------|--3-----------3-----------|


  ^           ^              ^           ^            
  E  E  E  E  E  E  E  E     E  E  E  E  E  E  E  E   
--5--3--3--------3--5--0--|-----------0--0-----0--1--|
--6--6--6--6--6--6--6-----|--3-----------3--3-----3--|
--5-----------5-----------|--2-----2-----2--------2--|
--------------3-----------|--0--0--------0--------0--|
--------------------------|--------------------------|
--3-----------3-----------|--0-----------------------|


                             ^           ^            
  E  E  E  E  E  E  E  E     E  E  E  E  E  E  E  E   
-----0-----------0-----0--|--1-----1-----1-----0-----|
-----3--------------3-----|--3-----3-----3-----3-----|
-----2-----2--------------|--2--2-----2--2--2--2--2--|
--------0-----0-----------|--------------------------|
--------------------------|--------------------------|
--0-----------------------|--0-----------0-----------|


  ^           ^               ^           ^            
  E  E  E  E  E  E  E   E     E  E  E  E  E  E  E  E   
--------------1-----0h--1--|--3-----5-----6-----5-----|
--3-----3-----3-----3------|--5-----5-----5-----5-----|
--3-----3-----3-----3------|--5--5-----5--5--5-----5--|
--3--3-----3-----3---------|--------------------------|
--1-----------1------------|--3-----------3-----------|
---------------------------|--------------------------|


  ^           ^               ^           ^            
  E  E  E  E  E  E  E   E     E  E  E  E  E  E  E  E   
--5-----5-----3-----3p--1--|--1-----1-----1-----3-----|
--6-----6-----1-----1------|--3-----3-----3-----3-----|
--5--5-----5--0--0---------|--2--2-----2--2--2-----2--|
---------------------------|--------------------------|
---------------------------|--------------------------|
--3-----------2------------|--0-----------0-----------|


  ^           ^              ^           ^            
  E  E  E  E  E  E  E  E     E  E  E  E  E  E  E  E   
--------------------------|--5-----3-----8-----6--5--|
--3-----------3-----------|--5-----5-----6-----5-----|
--3-----3-----2-----0-----|--5--5-----5--5--5-----5--|
--3--3-----3--3--3-----3--|--------------------------|
--1-----------1-----------|--3-----------3-----------|
--------------------------|--------------------------|


  ^                                ^           ^      
  E  E  E  E  E  E  E  E     E  E  E  E  E  E  E  E   
--------6--5--3--5--3--1--|--------x-----------1--3--|
--6-----3-----------3-----|--3-----3-----3-----3-----|
--2--2-----2-----2-----2--|--3-----3--3--2-----3-----|
--0-----------0-----------|--3--3--3--3--3--3--3--3--|
--------------------------|--1-----1-----1-----x-----|
--0-----------------------|--------x-----------x-----|


        ^           ^              ^           ^      
  E  E  E  E  E  E  E  E     E  E  E  E  E  E  E  E   
--3-----x--------3--5--6--|--1-----3--1--0-----1--3--|
--5-----5--3--6-----5-----|--3-----3-----3-----3-----|
--5--5--5--5--5--5--5--5--|--2--2--2--2--2--2--2--2--|
--------5-----5-----------|--------0-----------0-----|
--3-----3-----3-----x-----|--------x-----------x-----|
--------x-----------x-----|--0-----x-----0-----x-----|


        ^           ^              ^           ^      
  E  E  E  E  E  E  E  E     E  E  E  E  E  E  E  E   
--3-----x--3--1--0-----1--|--------x-----------x-----|
--2-----2-----2-----3-----|--3-----3--3--3-----3-----|
--2--2--2--2--2--2--2--2--|--3-----3-----3--2--0-----|
--------2-----------2-----|--3--3--3--3--3-----3--3--|
--0-----0-----0-----0-----|--1-----1-----1--1--1--1--|
--------x-----------x-----|--------x-----------x-----|


        ^           ^              ^           ^      
  E  E  E  E  E  E  E  E     E  E  E  E  E  E  E  E   
--3-----x--0--0-----3--6--|--5--------1--0-----1--3--|
--5-----5-----5--6--5-----|--3-----3-----3-----3-----|
--5--5--5--5--5--5--5--5--|--2--2--2--2--2--2--2--2--|
--------5-----------5-----|--------0-----0-----0-----|
--3-----3-----3-----x-----|--------x-----------x-----|
--------x-----------x-----|--0-----x-----------x-----|


        ^           ^                                         
  E  E  E  E  E  E  E  E     S  S  S S  S S S S S S S S Q     
--5-----3-----6-----5-----|----------------------------------|
--2-----2-----2-----2-----|-----------------0---2---3-L-L----|
--2--2--2--2--2--2--2--2--|----------0h-2--------------------|
--------2-----2-----2-----|--0h-2h-3------0---0---0----------|
--0-----x-----------x-----|----------------------------------|
--------x-----------x-----|----------------------------------|

(Capo 3)

    ^     ^       ^     ^          ^     ^       ^     ^      
    E  E  E  S  S E  E  E  S  S    E  E  E  S  S E  E  E  E   
|---1-----1--3S-5-3-----3--1p-0-|--1-----1--3p-1-0--------0--|
|---3--3--3-------3-----3-------|--1-----1-------1--3--1-----|
|*--2-----2-------3--3--3-------|--0--0--0-------0-----0-----|
|*--0---------------------------|----------------------2-----|
|---0-----x-------1-----x-------|--3-----x-------3-----x-----|
|---0-----x-------------x-------|--------x-------------x-----|


  ^     ^       ^     ^          ^     ^       ^     ^      
  E  E  E  S  S E  E  E  S  S    E  E  E  S  S E  E  E  E   
--1-----1--3S-5-3-----3--1p-0-|--0--------3p-1-0--6--5-----|
--3--3--3-------3-----3-------|--1-----1-------5-----5--5--|
--2-----2-------3--3--3-------|--0--0--0-------5-----5-----|
------------------------------|--------2-------------------|
--------x-------1-----x-------|--3-----x-------3-----x-----|
--0-----x-------------x-------|--------x-------------x-----|


  ^     ^     ^     ^          ^     ^      ^     ^      
  E  E  E  E  E  E  E  S  S    E  E  E  S S E  E  E  E   
-----------8--3-----3--1p-0-|-----------3---8-----5--3--|
--6-----6-----3-----3-------|--5-----5----6-6-----5-----|
--7--7--7-----3--3--3-------|--5-----5------5-----------|
--7-----7-------------------|--5--5--5------------------|
--------x-----1-----x-------|--3-----x------------------|
--0-----x-----------x-------|--------x------3--3--2-----|


  ^     ^       ^     ^          ^     ^       ^     ^        
  E  E  E  S  S E  E  E  S  S    E  E  E  S  S E  E  E  E     
--1-----1--3S-5-3-----3--1p-0-|--0--------3p-1-0--6--5------||
--3--3--3-------3-----3-------|--1-----1-------5-----5--5---||
--2-----2-------3--3--3-------|--0--0--0-------5-----5-----*||
------------------------------|--------2-------------------*||
--------x-------1-----x-------|--3-----x-------3-----x------||
--0-----x-------------x-------|--------x-------------x------||


  ^             ^                ^             ^             
  E  E  E  S  S E  E  E  S  S    E  E  E  S  S E  E   E  E   
--1-----1--3S-5-3--------1p-0-|--1--------3p-1-0---------0--|
--3--3----------3-----3-------|--1-----1-------1--3p--1-----|
--2-------------3--3----------|--0--0----------0------------|
--0---------------------------|-----------------------------|
--0-------------1-------------|--3-------------3------------|
--0---------------------------|-----------------------------|


  ^             ^                ^             ^              
  E  E  E  S  S E  E  E  S  S    E  E  E  S  S E  E   E   E   
--1-----1--3S-5-3--------1p-0-|--0--------3p-1-0--6p--5p--0--|
--3--3----------3-----3-------|--1-----1-------5-------------|
--2-------------3--3----------|--0--0----------5-------------|
------------------------------|------------------------------|
----------------1-------------|--3-------------3-------------|
--0---------------------------|------------------------------|


  ^          PH ^                ^            ^     ^      
  E  E  E    E  E  E  E  S  S    E  E  E  S S E  E  E  E   
--1-----1-------3--------1p-0-|-----------3---8-----5--3--|
--3--3-----<>1--3-----3-------|--5----------6-6-----5-----|
--2-------------3--3----------|--5-----5------5-----------|
------------------------------|--5--5------------3--------|
----------------1-------------|--3------------------------|
--0---------------------------|---------------3-----2-----|


  ^             ^                ^             ^              
  E  E  E  S  S E  E  E  S  S    E  E  E  S  S E  E   E   E   
--1-----1--3S-5-3--------1p-0-|--0--------3p-1-0--6p--5p--0--|
--3--3----------3-----3-------|--1-----1-------5-------------|
--2-------------3--3----------|--0--0----------5-------------|
------------------------------|------------------------------|
----------------1-------------|--3-------------3-------------|
--0---------------------------|------------------------------|


  ^                                                          
  W                   W                   W                  
--1----------------|--L----------------|--L----------------||
--3----------------|--L----------------|--L----------------||
--2----------------|--L----------------|--L----------------||
--0----------------|--L----------------|--L----------------||
--0----------------|--L----------------|--L----------------||
--0----------------|--L----------------|--L----------------||




Duration Legend
---------------
W - whole
H - half
Q - quarter
E - 8th
S - 16th
T - 32nd
X - 64th
. - note dotted
|-n-|  - n-tuplets


Tablature Legend
----------------
L - tied note
x - dead note
g - grace note
(n) - ghost note
> - accentuded note
NH - natural harmonic
AH - artificial harmonic
TH - tapped harmonic
SH - semi harmonic
PH - pitch harmonic
h - hammer on
p - pull off
b - bend
br - bendRelease
pb - preBend
pbr - preBendRelease
brb - bendReleaseBend
\n/ - tremolo bar dip
\n - tremolo bar dive
-/n - tremolo bar Release up
/n\ - tremolo bar inverted dip
/n - tremolo bar return
-\n - tremolo bar Release down
S - shift slide
s - legato slide
/ -  slide into from below or out of upwards
\ -  slide into from above or out of downwards
~ - vibrato
W - wide vibrato
tr - trill
TP - tremolo picking
T - tapping
S - slap
P - pop
< - fade in
^ - brush up
v - brush down
        
Comments

No comments yet