Gametabs
Home
Tabs
Random

Mario's House

Average rating: 5.000

1 ratings

Composer:

Tabber:

Style:

Instrument:

Created: February 28, 2013 at 12:00 AM

            Title: Mario's House
Game: Paper Mario
Composer: Yuka Tsujiyoko



E|--1-------------------------------|-----1-----0---1---------------------|-----1-----------------------------------|
B|--1----1---1----------3----3------|-1---1-----1---1---------------------|-----1-----1-------------------1---3-----|
G|*------2---2------3---3----3--3---|-2-----------------------------------|-----------2------3-----3---3--2---3-----|
D|*-------------3---5-----------5---|-------------------------------------|--------------3---5-----5---5------------|
A|----------------------------------|-----------3-----------------3---3---|-----------0-----------------------------|
E|--1---------------6---------------|-3--------------------1---1----------|-1-------------------6---------3---------|


|-----1---0---1---------|-------------------------------------|---------------------------------------|
|-1---1-----------------|-------------------------------3-----|-1---1------------1---1----------1-----|
|-2-------3---2---------|-3----3---3--5--7---7------3---3-----|-2---2---------2--2---2------2---2-----|
|-----------------------|-5----5---5--7--8---8---3--5---------|--------3---3--3----------3--3---------|
|-1-----------0---------|-------------------------------------|-0-------------------------------------|
|-----------------1-----|-6-----------------------------------|---------------------------------------|


|-------------------------1----------1------|-----------------------|-1-----------------------------|
|----------3--6--3--------3----------3------|--------------3--5-----|-1----1------------3-----------|
|-3-----3-----------3------------3----------|-5---5----5---5--5-----|------2----2---3---3----3--3---|
|-5--3-----------------3------3----------3--|-----------------------|-----------3---5-----------5---|
|-------------------------------------------|-3---------------------|-------------------------------|
|-6-----------------------------------------|-----------------------|-1-------------6---------------|


|-----1---0----0---0--1----------|-1---------------------------------|-----1---0---1----------|
|-1---1--------1---1-------------|-1----1---1--------------3---3-----|-1---1---1---1----------|
|-2-------3-----------2----------|------2---2--2----3---3--3---3-----|-2----------------------|
|--------------------------------|-------------3----5---5------------|------------------3-----|
|-3------------------------------|-----------------------------------|-0-----------0----------|
|-------------------------1------|-1-------------------------------1-|------------------------|


|---------------------1-----------|---------------------------------|----------------0--1---------------|
|-3---------------1---1-------1---|----------------1--3----1--------|-----1------1------1----3------1---|
|-3----3---3---3--2-----------2---|-3---3------3---2--3----2----3---|-----2------2---2-------3------2---|
|------5---5---5------------------|-5---5------5----------------5---|-------------------0-------0-------|
|-1----1----------0---0---0-------|-------------------3-------------|-0---0---0-------------------------|
|---------------------------------|-3------3---3---3----------------|-----------------------------------|

        ______________________            __________________
                             A|                            B|
|-----1------1---1--0---------|-----1------1---1--0---------|
|-----------------------------|-----------------------------|
|-----2------2---2--0--------*|-----2------2---2--0---------|
|----------------------------*|-----------------------------|
|-3-------3---------3----3----|-3-------3---------3---------|
|-----------------------------|-----------------------------|



        
Comments

@Lemoncobbler (March 03, 2013 at 2:42 AM)

neato more paper mario tabs now