Gametabs
Home
Tabs
Random

Koopa Village Theme

Average rating: 5.000

1 ratings

Tabber:

Instrument:

Created: July 23, 2021 at 12:00 AM

                                                                      Paper Mario - Koopa Village Theme
                                                           Composer: Tsujiyoko Yuka, 2000
                                                             Transcribed: Jookito, 2021


e|---------------------|-|--0-----------0--------|-----------------------|--0-----------0--------|-----------------------|--------------------1--|
B|---------1-----3-----|O|-----3--1--3-----1-----|-----1--1--------------|-----3--1--3-----1-----|-----3--3--------------|--------0-----3--------|
G|--0--2-4----2--------|-|--0-----------0-----0--|--2-----------2--------|--0-----------0-----0--|--2-----------2--------|--0--------------------|
D|---------------------|-|--2-----------2--------|--3-----------3--------|--2-----------2--------|--3-----------3--------|--5-----------5--------|
A|---------------------|O|--------3-----------3--|-----------------------|--------3-----------3--|-----------------------|-----------------------|
E|------------------3--|-|-----------------------|--------1-----------1--|-----------------------|--------1-----------1--|--------3-----------3--|

e|--0--------------------|--0--------------------|-----------------------|-----1--------0--------|-----------------------|--------------5--7--8--|
B|-----1-----------------|-----1-----------1--1--|-----------------0--3--|-----------3--------1--|--1--------------------|--------------6--6--6--|
G|--0-----0-----0--------|--0-----0--0--2--------|--2-----------0--------|--0-----------0--------|--0--------------------|--2--2--2--------------|
D|--2-----------2--------|--2-----------3--------|--3-----------5--------|--5--------------------|-----------------------|--3--3--3--------------|
A|-----------------------|-----------------------|-----------------------|-----------------------|--------3--------------|-----------------------|
E|--------3-----------3--|--------3-----------1--|--------1-----------3--|--------3-----------3--|-----------------------|-----------------------|

e|-------------3--7--8--|-------------1--3--5--|----0-----1-----2-----3--|-------------5--8--13-|-------------4--8--13-|-------3--3-----3-----5--|
B|-------------5--5--5--|-------------3--3--3--|-------------------------|-------------6--6--10-|-------------6--6---9-|-------0--0-----0--------|
G|-0--0--0--------------|----------------------|-------------------------|-2--2--2--------------|-1--1--1--------------|-4--4--------4-----5-----|
D|-2--2--2--------------|-3--3--3--------------|-------0-----1-----2-----|-3--3--3--------------|-3--3--3--------------|-5--5--------5-----7-----|
A|----------------------|-5--5--5--------------|-3-----------------------|----------------------|----------------------|-------------------------|
E|----------------------|----------------------|-------------------------|----------------------|----------------------|-------------------------|

e|-----6-----7--3-----|-|
B|--------------------|O|
G|--6-----7-----0-----|-|
D|--8-----9-----3-----|-|
A|--------------------|O|
E|--------------3-----|-|


                                                     Transcribed Live at www.Twtich.tv/Jookito
        
Comments

No comments yet