Gametabs
Home
Tabs
Random

Rawk Hawk

Average rating: 4.000

1 ratings

Composer:

Tabber:

Style:

Instrument:

Created: July 28, 2011 at 12:00 AM

            Rawk Hawk Rock
Paper Mario: The Thousand Year Door
Nintendo Gamecube
Tabbed by John Adams
Composed by Yoshito Hirano and Yuka Tsujiyoko
7/28/2011


e||-------------------|
B||-------------------|
G||--5--7--------5--7-|
D||-------------------|
A||-------------------|
E||-------------------|

||-----------------------------------------------------------------------------------|
||-----------------------------------------------------------------------------------|
||*--7-------5---4------7-------5---7------7-------5---4----4-5------7---9---12---14-|
||*------7------------------7------------------7----------7--------------------------|
||-----------------------------------------------------------------------------------|
||-----------------------------------------------------------------------------------|

---------------------------------------------------------------------------------------|
-------------------------------------------------------------------------------12------|
--12-12---12-12---12-12---12-12---13---11------15-15---15-15---15-15---15-15--------14-|
---------------------------------------------------------------------------------------|
---------------------------------------------------------------------------------------|
---------------------------------------------------------------------------------------|

---------------------------------11--14----------10h11--10----------------------------10-11-10-------|
--15-15---15-15---15-15---15-15----------15----------------13-10-11-10----------10-11----------13-10-|
-----------------------------------------------------------------------12-11-12----------------------|
-----------------------------------------------------------------------------------------------------|
-----------------------------------------------------------------------------------------------------|
-----------------------------------------------------------------------------------------------------|

-----------------------------------------------------------------------------------------------------------|
-----------------------------------------------------------------------------------------------------------|
---------------------7--6-----------------------7--6-----------------------7--6-----------------------7--6-|
--5---7-8-5---7-8-5----------5---7-8-5---7-8-5----------5---7-8-5---7-8-5----------5---7-8-5---7-8-5-------|
-----------------------------------------------------------------------------------------------------------|
-----------------------------------------------------------------------------------------------------------|

----------------------||
----------------------||
--7--------------12~-*||
---------------------*||
----------------------||
----------------------||
        
Comments

@Outback (December 13, 2014 at 2:44 PM)

This is one of my favorite game songs of all time and this tab lets me play it. Wish there was more Paper Mario: TTYD tabs though