Gametabs
Home
Tabs
Random

Spring

Average rating: No ratings

Composer:

Tabber:

Style:

Instrument:

Created: February 23, 2020 at 12:00 AM

            Guitar1


E ||------|----------------------------|----------------------------|
B ||-5----|-----------------5-----7L---|--7--------------------6L---|
G ||o6----|-----------------6-----4L---|--4L----------------4--6L---|
D ||o-----|----------------------------|----------------------------|
A ||------|----------------------------|----------------------------|
E ||------|----------------------------|----------------------------|


-----7-----9--------7-------|--5----|----------------------------|
--6-------------------------|-------|-----------------------8L---|
--6-------------------------|-------|-----------------------9L---|
----------------------------|-------|----------------------------|
----------------------------|-------|----------------------------|
----------------------------|-------|----------------------------|


----------------------------|----------------------------|
--8--------------------10---|-----------10L10------------|
--9--------------------9----|-----------9L-9-------------|
----------------------------|----------------------------|
----------------------------|----------------------------|
----------------------------|----------------------------|


----------------------------|----------------------------|
--10-------------------10L--|--10------------------------|
--9-------------------------|-----------------------9L---|
-----------------------9L---|--9--------------------9L---|
----------------------------|----------------------------|
----------------------------|----------------------------|


----------------------------|-----------9L-9-------------|
-----------------------10L--|--10------------------------|
--9--------------------9L---|--9-------------------------|
--9-------------------------|----------------------------|
----------------------------|----------------------------|
----------------------------|----------------------------|


----------------------------|----------------------------|-------|
--10-------------------10L--|--10-------10---------------|-------|
--7--------------------7L---|--7--------8-----------9L---|--9----|
----------------------------|-----------------------6L---|--6----|
----------------------------|----------------------------|-------|
----------------------------|----------------------------|-------|


----------------|----------------------------|----------------------------|
-----9L-9-------|----------------------------|-----------12----10----9L---|
-----9L-9-------|--------9--------------9L---|--9-----9-------------------|
-----6L-6-------|-----------------12---------|-----11---------------------|
----------------|----------------------------|----------------------------|
----------------|----------------------------|----------------------------|


----------------------------|-------|----------------------------|
--9-----------------9-------|-------|--------10----10-------10L--|
-----------------11----10L--|--10---|-----------11-------11------|
----------------------------|-------|----------------------------|
----------------------------|-------|----------------------------|
----------------------------|-------|----------------------------|


--------9-------------------|----------------------------|
--10-12----10L10------------|--------10-------10----12---|
----------------------------|-----------9--11------------|
----------------------------|----------------------------|
----------------------------|----------------------------|
----------------------------|----------------------------|


--9-----12-------9----------|-------|----------------------------|
-----------12----------10L--|--10---|-----------------9--10-9----|
----------------------------|-------|----------------------------|
----------------------------|-------|----------------------------|
----------------------------|-------|----------------------------|
----------------------------|-------|----------------------------|


----------------------------|----------------------------|
-----------------9----------|--------------------9--10---|
--9L----------9--------11L--|--11------------------------|
----------------------------|----------------------------|
----------------------------|----------------------------|
----------------------------|----------------------------|


-----------9----------------|-----------9----------------|--12---|-------|
--12----------------10------|--12----------------10------|-------|-------|
----------------------------|----------------------------|-------|-------|
----------------------------|----------------------------|-------|-------|
----------------------------|----------------------------|-------|-------|
----------------------------|----------------------------|-------|-------|


-----17-------17-------17L--|--17----17-------17---------|
-----15-------14-------15L--|--15----14-------15---------|
----------------------------|----------------------------|
----------------------------|----------------------------|
----------------------------|----------------------------|
----------------------------|----------------------------|


-----16----------9--10-9L---|--9--------------9----------|-------|
-----15-------12------------|-----12----9--------12-10L--|--10---|
-----16---------------------|----------------------------|-------|
----------------------------|----------------------------|-------|
----------------------------|----------------------------|-------|
----------------------------|----------------------------|-------|


-----14----12----17-12------|----------------------------|
----------------------------|--------------------10-12---|
-----------------------14L--|--14-------------11---------|
----------------------------|----------------------------|
----------------------------|----------------------------|
----------------------------|----------------------------|


--9-----12-9----------------|----------------------------|
-----------------10---------|--10----------------10-12---|
-----------------------11---|-----------------11---------|
----------------------------|----------------------------|
----------------------------|----------------------------|
----------------------------|----------------------------|


--9-------------------------|----------------------------|
-----------12----10---------|--9--10-9-------------------|
----------------------------|-----------9-----------11L--|
----------------------------|-----------------11---------|
----------------------------|----------------------------|
----------------------------|----------------------------|


-----------------------8----|--9-----12-9----------------|
-----------10----10-12------|-----------------10---------|
--11-9--11----11------------|-----------------------11---|
----------------------------|----------------------------|
----------------------------|----------------------------|
----------------------------|----------------------------|


--8h-9-----------9-----------------------------------------------------------9--
-----------------------------------------12----------------------12-------------
--------------------------------------------------------------------------------
--------------------------------------------------------------------------------
--------------------------------------------------------------------------------
--------------------------------------------------------------------------------


---------10------------|--14-------12----11----12L--|--12-17L17------|
-----------------------|----------------------------|----------------|
-----------------------|----------------------------|-----------14---|
-----------------------|----------------------------|----------------|
-----------------------|----------------------------|----------------|
-----------------------|----------------------------|----------------|


--12-------10----9----------|----------------------------|-------|------|||
-----------------------12L--|--12----------------10-9----|--10---|------|||
----------------------------|----------------------------|-------|-----o|||
----------------------------|----------------------------|-------|-----o|||
----------------------------|----------------------------|-------|------|||
----------------------------|----------------------------|-------|------|||


Guitar2

E ||-0-----0--------0-----0L---|--0--------0-----0----------|
B ||-2-----2--------2-----2L---|--2--------2-----2----------|
G ||o1-----1--------1-----1L---|--1--------1-----1----------|
D ||o------------2-------------|--------------2L-2----------|
A ||-0-------------------------|--0-------------------------|
E ||---------------------------|----------------------------|


----------------------------|----------------------------|
--3-----3--------3-----2L---|--2--------2L-2L----2-------|
--4-----4--------4-----4L---|--4--------4L-4L----4-------|
--4-----4--------4-----3L---|--3--------3L-3L----3-------|
----------------------------|--4-------------------------|
--4-----------4-------------|--------------4-----1-------|


----------------------------|----------------------------|
--2-----2--------2-----2L---|--2--------2-----2----------|
--2-----2--------2-----2L---|--2--------2-----2----------|
--2-----2--------2-----2L---|--2--------2-----2----------|
----------------------------|----------------------------|
--2-----------2-------------|--2-----------2-----1-------|


-----------------------0L---|--0--------0-----0----------|
--0-----0--------0-----2L---|--2--------2-----2----------|
--0-----0--------0-----0L---|--0--------0-----0----------|
--0-----0--------0----------|----------------------------|
--------------2-------------|--0-------------------------|
--0-------------------------|--------------0-------------|


--2-----2--------2-----1L---|--1--1--------1-------------|
--2-----2--------2-----3L---|--3--3--------3-------------|
--2-----2--------2-----2L---|--2--2--------2-------------|
--0-------------------------|--0--------0----------------|
--------------0-------------|----------------------------|
----------------------------|----------------------------|


--0-----0--------0-----2----|-----------2-----2----------|
--0-----0--------0-----2----|-----------2-----2----------|
--1-----1--------1-----2----|-----------2-----2----------|
----------------------------|----------------------------|
--4-----------4-------------|----------------------------|
----------------------------|--2-----------2-------------|


--2-----2--------2-----2L---|--2--------2-----2----------|
--3-----3--------3-----3L---|--3--------4-----4----------|
--2-----2--------2-----2L---|--2--------2-----2----------|
----------------------------|----------------------------|
--2-----------2-------------|--2-----------2-------------|
----------------------------|----------------------------|


--0-----0--------0-----0L---|--0--0L-0-------|--0-----0--------0-----0L---|
--3-----3--------3-----3L---|--3--3L-3-------|--2-----2--------2-----2L---|
--1-----1--------1-----1L---|--1--1L-1-------|--1-----1--------1-----1L---|
----------------------------|----------------|--------------2-------------|
--------------2-------------|-----2L-2-------|--0-------------------------|
--0-------------------------|--0-------------|----------------------------|


--0--------0-----0----------|----------------------------|
--2--------2-----2----------|--3-----3--------3-----2L---|
--1--------1-----1----------|--4-----4--------4-----4L---|
--------------2L-2----------|--4-----4--------4-----3L---|
--0-------------------------|----------------------------|
----------------------------|--4-----------4-------------|


----------------------------|----------------------------|
--2--------2L-2L----2-------|--2-----2--------2-----2L---|
--4--------4L-4L----4-------|--2-----2--------2-----2L---|
--3--------3L-3L----3-------|--2-----2--------2-----2L---|
--4-------------------------|----------------------------|
--------------4-----1-------|--2-----------2-------------|


----------------------------|-----------------------0L---|
--2--------2-----2----------|--0-----0--------0-----2L---|
--2--------2-----2----------|--0-----0--------0-----0L---|
--2--------2-----2----------|--0-----0--------0----------|
----------------------------|--------------2-------------|
--2-----------2-----1-------|--0-------------------------|


--0--------0-----0----------|--2-----2--------2-----1L---|
--2--------2-----2----------|--2-----2--------2-----3L---|
--0--------0-----0----------|--2-----2--------2-----2L---|
----------------------------|--0-------------------------|
--0-------------------------|--------------0-------------|
--------------0-------------|----------------------------|


--1--1--------1-------------|--0-----0--------0-----2----|
--3--3--------3-------------|--0-----0--------0-----2----|
--2--2--------2-------------|--1-----1--------1-----2----|
--0--------0----------------|----------------------------|
----------------------------|--4-----------4-------------|
----------------------------|----------------------------|


-----------2-----2----------|--2-----2--------2-----2L---|
-----------2-----2----------|--3-----3--------3-----3L---|
-----------2-----2----------|--2-----2--------2-----2L---|
----------------------------|----------------------------|
----------------------------|--2-----------2-------------|
--2-----------2-------------|----------------------------|


--2--------2-----2----------|--0-----0--------0-----0L---|--0--0L-0-------|
--3--------4-----4----------|--3-----3--------3-----3L---|--3--3L-3-------|
--2--------2-----2----------|--1-----1--------1-----1L---|--1--1L-1-------|
----------------------------|----------------------------|----------------|
--2-----------2-------------|--------------2-------------|-----2L-2-------|
----------------------------|--0-------------------------|--0-------------|


--0-----0--------0-----0L---|--0--------0-----0----------|
--2-----2--------2-----2L---|--2--------2-----2----------|
--1-----1--------1-----1L---|--1--------1-----1----------|
--------------2-------------|--------------2L-2----------|
--0-------------------------|--0-------------------------|
----------------------------|----------------------------|


----------------------------|----------------------------|
--3-----3--------3-----2L---|--2--------2L-2L----2-------|
--4-----4--------4-----4L---|--4--------4L-4L----4-------|
--4-----4--------4-----3L---|--3--------3L-3L----3-------|
----------------------------|--4-------------------------|
--4-----------4-------------|--------------4-----1-------|


----------------------------|----------------------------|
--2-----2--------2-----2L---|--2--------2-----2----------|
--2-----2--------2-----2L---|--2--------2-----2----------|
--2-----2--------2-----2L---|--2--------2-----2----------|
--------------4-------------|----------------------------|
--2-------------------------|--2-----------2-----1-------|


-----------------------0L---|--0--------0-----0----------|
--0-----0--------0-----2L---|--2--------2-----2----------|
--0-----0--------0-----0L---|--0--------0-----0----------|
--0-----0--------0----------|----------------------------|
--------------2-------------|--0-------------------------|
--0-------------------------|--------------0-------------|


--2-----2--------2-----1L---|--1--1--------1-------------|
--2-----2--------2-----3L---|--3--3--------3-------------|
--2-----2--------2-----2L---|--2--2--------2-------------|
--0-------------------------|--0--------0----------------|
--------------0-------------|----------------------------|
----------------------------|----------------------------|


--0-----0--------0-----2L---|--2--------2-----2----------|
--0-----0--------0-----2L---|--2--------2-----2----------|
--1-----1--------1-----2L---|--2--------2-----2----------|
----------------------------|----------------------------|
--4-----------4-------------|----------------------------|
----------------------------|--2-----------2-------------|


--2-----2--------2-----0L---|--0--------0-----0L-0-------|
--3-----3--------3-----0L---|--0--------0-----0L-0-------|
--2-----2--------2-----1L---|--1--------1-----1L-1-------|
--------------4-------------|--2-----------2-----0-------|
--2-------------------------|----------------------------|
----------------------------|----------------------------|


--0-----0--------0-----2L---|--2--------2-----2----------|
--0-----0--------0-----2L---|--2--------2-----2----------|
--1-----1--------1-----2L---|--2--------2-----2----------|
----------------------------|----------------------------|
--4-----------4-------------|----------------------------|
----------------------------|--2-----------2-------------|


--2-----2--------2-----0L---|--0--------0-----0----------|
--3-----3--------3-----0L---|--0--------0-----0----------|
--2-----2--------2-----1L---|--1--------1-----1----------|
----------------------------|----------------------------|
--2-----------2-------------|--------------2-------------|
----------------------------|--0-------------------------|


--1--------1--------1L------|--1---|||
--1--------1--------1L------|--1---|||
--2--------2--------2L------|--2--o|||
----------------------------|-----o|||
--3--------3--------3L------|--3---|||
----------------------------|------|||




        
Comments

No comments yet