Gametabs
Home
Tabs
Random

Wrapped in Darkness

Average rating: 5.000

3 ratings

Composer:

Tabber:

Style:

Instrument:

Created: August 11, 2016 at 12:00 AM

            				Wrapped in Darkness
				~Pandora Hearts 2~

Music by Yuki Kajiura
Performed by Koichiro Tashiro
Tabbed by Coolbreeze
Tempo = 92


     ^                                                            
     H.           Q       H        H           H.           Q     
E||--------------------|--8--------5--------|--7------------3----|
B||--------------------|--------------------|--------------------|
G||--2-----------------|--9--------5--------|--7------------4----|
D||--2------------2----|--------------------|--------------------|
A||--0-----------------|--------------------|--------------------|
E||--------------------|--------------------|--------------------|


  W                   Q    Q    Q    Q         H        H         
--5----------------|----------------------|----8--------5--------|
-------------------|----------------------|----------------------|
--5----------------|------------2---------|--5g9--------5--------|
-------------------|-------2--------------|----------------------|
-------------------|--0--------------0----|----------------------|
-------------------|----------------------|----------------------|


  H.           Q       W                   W                 
--7------------3----|--5----------------|--L----------------|
--------------------|-------------------|-------------------|
--7------------4----|--5----------------|--L----------------|
--------------------|-------------------|-------------------|
--------------------|-------------------|-------------------|
--------------------|-------------------|-------------------|


                       ^                                        
  H        H           H.           Q         W                 
--8--------5--------|--7------------------|--------------------|
--------------------|---------------8S----|--10----------------|
--------------------|---------------------|--------------------|
--------------------|---------------------|--------------------|
--------------------|--8------------------|--------------------|
--------------------|---------------------|--------------------|


  Q    Q    H           H        Q     Q       Q    Q    Q    Q     
---------------------|--7-------------------|----------------------|
------------0--------|-----------8S----5----|-----------------1----|
------------0--------|----------------------|------------2---------|
-------0-------------|----------------------|-------2--------------|
---------------------|----------------------|--0-------------------|
--3------------------|----------------------|----------------------|


                      ^                                       
  W                   H.           Q       H        H         
--0----------------|--------------------|--8--------5--------|
-------------------|--------------------|--------------------|
-------------------|--2-----------------|--9--------5--------|
-------------------|--2------------2----|--------------------|
-------------------|--0-----------------|--------------------|
-------------------|--------------------|--------------------|


  ^                                         ^                  
  H.            Q       W                   H.           Q     
--7------------10----|--8----------------|--------------------|
---------------------|-------------------|--------------------|
--7------------10----|--9----------------|--2-----------------|
---------------------|-------------------|--2------------2----|
---------------------|-------------------|--0-----------------|
---------------------|-------------------|--------------------|


  H        H           H        Q      Q       W                 
--8--------5--------|--7--------------10----|--8----------------|
--------------------|-----------------------|-------------------|
--9--------5--------|--7--------7s----10----|--9----------------|
--------------------|-----------------------|-------------------|
--------------------|-----------------------|-------------------|
--------------------|-----------------------|-------------------|


    H         H           H        Q    Q        W                 
--7g8------------------|--7------------------|--------------------|
-------------10--------|----------------8----|--10----------------|
-----------------------|-----------7---------|--------------------|
-----------------------|---------------------|--------------------|
-----------------------|--8------------------|--------------------|
-----------------------|---------------------|--------------------|


  Q    Q    H           H        Q     Q       Q    Q    Q    Q     
---------------------|--7-------------------|-----------------0----|
------------0--------|-----------8----10----|------------1---------|
------------0--------|----------------------|----------------------|
-------0-------------|----------------------|-------2--------------|
---------------------|----------------------|--0-------------------|
--3------------------|----------------------|----------------------|


       ^               ^                  
  Q    H.              W                  
-------5------------|--L----------------||
-------5------------|--L----------------||
-------5------------|--L----------------||
--2-----------------|-------------------||
-------0------------|--L----------------||
--------------------|-------------------||
        
Comments

@BigHeadClan (August 12, 2016 at 8:09 AM)

Keep the uploads coming~!