Gametabs
Home
Tabs
Random

Splash Wave

Average rating: 5.000

1 ratings

Composer:

Tabber:

Style:

Instrument:

Created: January 17, 2010 at 12:00 AM

            Outrun - Splash Wave (Arcade)
Simple solo guitar arrangement
Tabbed by LTRobson Jan 2010

Standard tuning

|-----------------------------------------------1-----0-----0---
|---------------1-----0-----0-----------------------------3-----
|-0-----------0-----------2-------------------------------------
|---------------------------------3-----------3-----------------
|---------------------------------------------------------------
|-3---3---3---3---3---3---3---3---1---1---1---1---1---1---1---1-

|---------------------------------------------------------------
|-0----------------------/3---1---0-----------------------------
|---------------------------------------------0-----------------
|-----------------------------------------------2---------------
|-0---0---0---0---0---0---0---0---------------------------------
|---------------------------------0---0---0---0---0---0---0---0-

|---------------------------------------------------------------
|-------------------------1-0-----------------------------0-----
|---------------------------------2-0-------------------0---2---
|-3---------------------3-------------2-------------------------
|---------------------------------3---3---3---3---3---3---3---3-
|-1---1---1---1---1---1---1---1---------------------------------

|---------------------------------------------------------------
|---------------------------5-----3---------1----/3-------------
|-3-------------------------------------------------------------
|-1---1---1---1---1---1---1---1---0---0---0---0---0---0---0---0-
|---------------------------------------------------------------
|---------------------------------------------------------------

        
Comments

@Ryosu (February 25, 2010 at 11:47 PM)

wow, beautiful dude.. Ive been waiting for someone to make this tab :D