Gametabs
Home
Tabs
Random

The Very, Very, Very Strongest

Average rating: 5.000

3 ratings

Composer:

Tabber:

Style:

Instrument:

Created: October 02, 2011 at 12:00 AM

            The Very, Very, Very Strongest
One Piece
Anime
Composed by Kohei Tanaka and Shiro Hamaguchi
Tabbed by John Adams
10/1/2011


e||-----------------------------------------------------------------------------------------|
B||-----------------------------------------------------------------------------------------|
G||----------------------------------------------------------------------------------7-9--7-|
D||------------10-9-7----7---7--9-----9---7------7----9--10--7---7--9-----9---7-9-10--------|
A||--7-10-7-10--------10-----------7---------10------------------------7--------------------|
E||-----------------------------------------------------------------------------------------|

-------------------------------------------------------------------------|
-------------------------------------------------------------------------|
--------------------------------------------------------------7-9--7-----|
--7---7--9-----9---7------7----9--10--7---7--9-----9---7-9-10----------7-|
------------7---------10------------------------7------------------------|
-------------------------------------------------------------------------|

-------------------------------------------------------------------------------------------------|
-------------------------------------------------------------------------------------------------|
---------------7------------------------------7-----------------7------------------------------7-|
--10--10--9-10---9--10----9--9--7-9-10-9-----------10--10--9-10---9--10----9--9--7-9-10-9--------|
------------------------------------------10-----------------------------------------------10----|
-------------------------------------------------------------------------------------------------|

--------------------------------------------------------------------------------|
--------------------------------------------------------------------------------|
-----7-9---------------7-------------------------7-9--7-------------------------|
--10---------7----9-10---9-------9---7----7-9-10-----------7--7--10--7----------|
---------10-----------------10-------------------------------------------7------|
-----------------------------------------------------------------------------10-|

-----------------------10------------------------------------------|
--10--13--10---10--13------12---10---------------------------------|
------------------------------------12----------9-12-9-------------|
-----------------------------------------10-12------------7--10--7-|
-------------------------------------------------------------------|
-------------------------------------------------------------------|

------------------------------------------------------------------------------------------------------|
------------------------------------------------------------------------------------------------------|
------------------------------------------------------7--------------7------------------------------7-|
--7--7-9-----9---7--7-9-----9---7--7-9-----9---7-9-10---10--10--9-10---9--10----9--9--7-9-10-9--------|
---------10-------------10-------------10-------------------------------------------------------10----|
------------------------------------------------------------------------------------------------------|

-------------------------------------------------------------------------------------------------|
-------------------------------------------------------------------------------------------------|
---------------7------------------------------7-----------------7------------------------------7-|
--10--10--9-10---9--10----9--9--7-9-10-9-----------10--10--9-10---9--10----9--9--7-9-10-9--------|
------------------------------------------10-----------------------------------------------10----|
-------------------------------------------------------------------------------------------------|

-----------------------------------------------------------------------|
----------------------------8--------------------------------8--12--10-|
-----7-9---------------7-------7-------7-9---------------7-------------|
--10---------7----9-10---9----------10---------7----9-10---9-----------|
---------10--------------------------------10--------------------------|
-----------------------------------------------------------------------|

---------------------------------------------------------------------|
---------------------------------------------------------------------|
--------------------------------------------------------------7-9--7-|
--7---7--9-----9---7------7----9--10--7---7--9-----9---7-9-10--------|
------------7---------10------------------------7--------------------|
---------------------------------------------------------------------|

-----------------------------------------------------------------------------------------------------------|
-----------------------------------------------------------------------------------------------------------|
--------------------------------------------------------------7-9--7---------------------------7-9--12--14-|
--7---7--9-----9---7------7----9--10--7---7--9-----9---7-9-10----------7---7--9-----9---7-9-10-------------|
------------7---------10------------------------7--------------------------------7-------------------------|
-----------------------------------------------------------------------------------------------------------|
        
Comments

@joystique (April 22, 2012 at 6:11 PM)

i can't find the tempo for this tab can you help pliz ( i am french )