Gametabs
Home
Tabs
Random

Theme of the Celestials

Average rating: 5.000

3 ratings

Composer:

Tabber:

Style:

Instrument:

Created: May 04, 2015 at 12:00 AM

            Tribe of Heavenly Gods
Okami Original Soundtrack
Composer: Rei Kondo
Arranged by: Matheus Massinelli
Video Demonstration:
https://youtu.be/jY_IWNLdoYM
If you like, please, subscribe!

3rd, 4th, 5th, 6th strings = Capo 1st fret.

Allegro
      Q    Q    Q    Q       H        Q    Q       H.           Q     
E||---0-------------------|---------------------|--------------------|
B||--------4----0----2----|---------------------|--0-----------------|
G||*------------0---------|--0-------------0----|---------------0----|
D||*----------------------|-----------3---------|--------------------|
A||---3-------------------|---------------------|--3-----------------|
E||-----------------------|---------------------|--------------------|


  H        Q    Q       H        Q    Q       H        Q    Q     
---------------------|---------------------|---------------------|
---------------------|----------------0----|---------------------|
---------------------|--0--------0---------|---------------------|
--3--------1----3----|---------------------|--3--------1----3----|
---------------------|--3------------------|---------------------|
---------------------|---------------------|---------------------|


  H        H           W                   Q    Q    Q    Q     
--------------------|-------------------|--0-------------------|
-----------2--------|-------------------|-------4----0----2----|
--0-----------------|--3----------------|------------0---------|
--------------------|-------------------|----------------------|
--3-----------------|-------------------|--3-------------------|
--------------------|-------------------|----------------------|


  H        Q    Q       H.           Q       H        Q    Q     
---------------------|--------------------|---------------------|
---------------------|--0-----------------|---------------------|
--0-------------0----|---------------0----|---------------------|
-----------3---------|--------------------|--3--------1----3----|
---------------------|--3-----------------|---------------------|
---------------------|--------------------|---------------------|


  H        Q    Q       H        Q    Q       H        H         
---------------------|---------------------|--------------------|
----------------0----|---------------------|-----------2--------|
--0--------0---------|---------------------|--0-----------------|
---------------------|--3--------1----3----|--------------------|
--3------------------|---------------------|--3-----------------|
---------------------|---------------------|--------------------|


  W                   H        H           H        S S  E  Q     
-------------------|--------------------|------------------------|
-------------------|--0-----------------|------------------------|
--3----------------|-----------0--------|-----------0------------|
-------------------|--------------------|--3----------3p-1--3----|
-------------------|--------------------|------------------------|
-------------------|--4-----------------|------------------------|


  Q    Q    Q    Q       Q    Q    Q    Q       H        H         
----------------------|----------------------|--------------------|
----------------------|----------------------|--0-----------------|
-------0--------------|-----------------0----|-----------0--------|
--3---------3----1----|-------1----3---------|--------------------|
--3-------------------|--3-------------------|--------------------|
----------------------|----------------------|--4-----------------|


  H        Q    Q       Q    Q    Q    Q       H        H         
---------------------|--0-------------------|--------------------|
----------------0----|-------4----2----0----|-----------0--------|
-----------0---------|----------------------|--0-----------------|
--3------------------|----------------------|--------------------|
---------------------|--3-------------------|--1-----------------|
---------------------|----------------------|--------------------|


  H        H           H        S S  E  Q       Q    Q    Q    Q     
--------------------|------------------------|----------------------|
--0-----------------|------------------------|----------------------|
-----------0--------|-----------0------------|-------0--------------|
--------------------|--3----------3p-1--3----|--3---------3----1----|
--------------------|------------------------|--3-------------------|
--4-----------------|------------------------|----------------------|


  H        H           Q    Q    Q    Q       Q    Q    H         
--------------------|------------0----2----|---------------------|
--------------------|--2----4--------------|--3------------------|
--------------------|----------------------|-------5----3--------|
--0-----------------|----------------------|---------------------|
-----------1--------|----------------------|---------------------|
--------------------|--1-------------------|--3------------------|


  H        Q    Q       W                   Q    Q    Q    Q     
---------------------|-------------------|-------4----4----7----|
---------------------|-------------------|--2-------------------|
--5------------------|-------------------|----------------------|
-----------3----5----|--2----------------|------------1---------|
--3------------------|--3----------------|----------------------|
---------------------|-------------------|--4-------------------|


  H        Q    Q       Q    Q    Q    Q       H        H         
--4--------2----0----|--2----4----2----0----|--------------------|
---------------------|----------------------|--4--------0--------|
--1------------------|----------------------|--0-----------------|
---------------------|----------------------|--------------------|
---------------------|----------------------|--------------------|
---------------------|--3-------------------|--------------------|


  Q    Q    Q    Q       H        Q    Q       Q    Q    Q    Q     
-------4----4----7----|--4--------2----0----|----------------------|
--2-------------------|---------------------|--4----5----7----9----|
----------------------|--1------------------|----------------------|
------------1---------|---------------------|------------5---------|
----------------------|---------------------|--3-------------------|
--4-------------------|---------------------|----------------------|


   H         H           Q    Q    Q    Q       H        Q    Q     
--11--------12--------|-------4----4----7----|--4--------2----0----|
----------------------|--2-------------------|---------------------|
----------------------|----------------------|--1------------------|
--10------------------|------------1---------|---------------------|
----------------------|----------------------|---------------------|
----------------------|--4-------------------|---------------------|


  Q    Q    Q    Q       H        H           Q    Q    Q    Q     
--2----4----2----0----|--------------------|----------------------|
----------------------|--4--------0--------|--3----2----0---------|
----------------------|--0-----------------|-----------------1----|
----------------------|--------------------|----------------------|
----------------------|--------------------|----------------------|
--4-------------------|--------------------|--2-------------------|


  H        H           W                   W                   
-----------2--------|--0----------------|--5-----------------||
--0-----------------|-------------------|--------------------||
--------------------|-------------------|-------------------*||
--------------------|--3----------------|-------------------*||
--------------------|-------------------|--------------------||
--2-----------------|--1----------------|--------------------||


  Q    Q    Q    Q       Q    Q    H           Q    Q    Q    Q     
------------0----2----|---------------------|------------0----2----|
--2----4--------------|--4------------------|--2----4--------------|
----------------------|-------5----3--------|----------------------|
----------------------|---------------------|----------------------|
----------------------|---------------------|----------------------|
--1-------------------|--3------------------|--1-------------------|


  Q    Q    H           Q    Q    Q    Q       Q    Q    H         
---------------------|------------0----2----|---------------------|
--4------------------|--2----4--------------|--4------------------|
-------5----3--------|----------------------|-------5----3--------|
---------------------|----------------------|---------------------|
---------------------|----------------------|---------------------|
--3------------------|--1-------------------|--3------------------|


  Q    Q    Q    Q       Q    H.              W                  
----------------------|--------------------|-------------------||
----------------------|--------------------|-------------------||
--5---------0----5----|-------0------------|-------------------||
-------3--------------|--3-----------------|--2----------------||
--3-------------------|--------------------|--3----------------||
----------------------|--------------------|-------------------||




Duration Legend
---------------
W - whole
H - half
Q - quarter
E - 8th
S - 16th
T - 32nd
X - 64th
. - note dotted
|-n-|  - n-tuplets


Tablature Legend
----------------
L - tied note
x - dead note
g - grace note
(n) - ghost note
> - accentuded note
NH - natural harmonic
AH - artificial harmonic
TH - tapped harmonic
SH - semi harmonic
PH - pitch harmonic
h - hammer on
p - pull off
b - bend
br - bendRelease
pb - preBend
pbr - preBendRelease
brb - bendReleaseBend
\n/ - tremolo bar dip
\n - tremolo bar dive
-/n - tremolo bar Release up
/n\ - tremolo bar inverted dip
/n - tremolo bar return
-\n - tremolo bar Release down
S - shift slide
s - legato slide
/ -  slide into from below or out of upwards
\ -  slide into from above or out of downwards
~ - vibrato
W - wide vibrato
tr - trill
TP - tremolo picking
T - tapping
S - slap
P - pop
< - fade in
^ - brush up
v - brush down

        
Comments

No comments yet