Gametabs
Home
Tabs
Random

Oki's Theme

Average rating: No ratings

Composer:

Tabber:

Style:

Instrument:

Created: July 26, 2012 at 12:00 AM

            Oki's Theme
Okami
Composed by Hiroshi Yamaguchi
Tabbed by hslesperance
7/26/12

Guitars 1 & 3 - Standard Tuning
Guitar 2 - Drop D Tuning (DADGBe)




Guitar 1

  W             W
|-------------|---------------|
|-------------|---------------|
|-------------|---------------|
|-------------|---------------|
|-------------|---------------|
|-------------|---------------|


     W                  +Q    H           E  E    S   S  H.            S  S    H.           Q
||-------------------|-------------------------|----------------------------|--------------------|
||o------------------|-------------------------|----------------------------|--------------------|
||-------------------|----------------------15-|-13--15-13------------------|--------------------|
||--13---------------|-(13)--------------13----|----------------------16-15-|-13-----------15----|
||o------------------|-------------------------|----------------------------|--------------------|
||-------------------|-------------------------|----------------------------|--------------------|


   S   S  E  +H.             H         H          S   S  E  +H.            H         E   E  E  E
|-------------------------|--------------------|-------------------------|-----------------------|
|-------------------------|--------------------|-------------------------|-----------------------|
|-11--13-11-(11)----------|--------------------|-------------------------|--------------------13-|
|-------------------------|-15-----------------|-13--16-13-(13)----------|--------------13-16----|
|-------------------------|-----------16-------|-------------------------|-----------------------|
|-------------------------|--------------------|-------------------------|-----------------------|


   a  H         H        H.             E  E    S   S  E  +H.             Q    Q    Q   Q
|---------------------|----------------------|--------------------------|----------11--13--|
|---------------------|-14-------------------|-11--14-11-(11)-----------|-----11-----------|
|-16p15--------13-----|----------------15-13-|--------------------------|------------------|
|---------------------|----------------------|--------------------------|------------------|
|---------------------|----------------------|--------------------------|------------------|
|---------------------|----------------------|--------------------------|------------------|


   H         +E   Q   S  S    H        +E  E  E  E    S   S  Q    E  Q    Q     Q.      a  Q.        Q
|-14--------(14)-16--14-13-|-----------------------|-------------------------|----------------------------|
|--------------------------|-16-------(16)---14----|-------------------------|----------------------------|
|--------------------------|--------------------15-|-13--15-13------13-------|----------------------------|
|--------------------------|-----------------------|-------------16------13--|-15------15h16--------15----|
|--------------------------|-----------------------|-------------------------|----------------------------|
|--------------------------|-----------------------|-------------------------|----------------------------|


   W              +H         H       W               W
|--------------|-------------------|---------------|-------------------||
|--------------|-------------------|---------------|------------------o||
|--------------|-------------------|---------------|-------------------||
|-13-----------|-(13)--------------|---------------|-------------------||
|--------------|-------------------|---------------|------------------o||
|--------------|-------------------|---------------|-------------------||




Guitar 2

  H.      E e   e Q  E +H
|-------------|---------------|
|-------------|---------------|
|-------------|---------------|
|-----------1-|-1----1-(1)----|
|-----------1-|-1----1-(1)----|
|-----------1-|-1----1-(1)----|


     E  E E E +H         E  E E E  +E  E  Q       E      E  E E +H             E  E E E Q   Q
||-------------------|-------------------------|----------------------------|--------------------|
||o------------------|-----------------2-------|----------------------------|-----------0---2----|
||-------------------|----------3--(3)----3----|--------------1-(1)---------|--------------------|
||--------4----------|--------4----------------|------------1---------------|-------1------------|
||o-----1------------|------1------------------|---------1------------------|-----2---2----------|
||---1------4-(4)----|---1---------------------|--1-------------------------|--1-----------------|


   E      E   E  E +H        E  E E E +E  E Q     E      E   E  E +H       E  E E E +E   E  Q
|-------------------------|--------------------|-------------------------|-----------------------|
|-------------------------|---------------2----|-------------------------|-----------------------|
|----------------3-(3)----|---------3-(3)---3--|-------------------------|------------------1----|
|-------------4-----------|-------3------------|----------------6-(6)----|------1-4-(4)--4-------|
|---------1---------------|-----1--------------|-------------6-----------|----2------------------|
|--1----------------------|--1-----------------|--1------6---------------|-1---------------------|


      E  E E E +H        E  E E E +H            E      E   E  E +H        E E  E E  Q   Q
|---------------------|----------------------|--------------------------|------------------|
|---------------------|----------------------|--------------------------|------------------|
|------------4-(4)----|---------3-(3)--------|----------------3-(3)-----|------3----3---1--|
|--------1-4----------|-----1-4--------------|---------0---3------------|---3----3---------|
|-----2---------------|--2-------------------|--1-----------------------|-1----------------|
|---------------------|----------------------|--------------------------|------------------|


   E  E E E  +H               E E E E   Q     Q       E      E E  E +Q    Q     E  E E     E  +Q     q
|--------------------------|-----------------------|-------------------------|----------------------------|
|--------------------------|-----------------------|-------------------------|----------------------------|
|--------------------------|------------------3----|----------------------5--|----------------------------|
|-------3-6--(6)-----------|------3-----6----------|--------------6-(6)------|-------1-----4--(4)----3----|
|-----4--------------------|----4---4--------------|---------3-6-------------|-----1----------------------|
|--6-----------------------|--6--------------------|--6----------------------|--1-------------------------|


   H.      E e     e  e E E +H       W               W
|--------------|-------------------|---------------|-------------------||
|--------------|-------------------|---------------|------------------o||
|--------------|-------------------|---------------|-------------------||
|--1---------1-|---1--1---1-(1)----|---------------|-------------------||
|------------1-|---1--1---1-(1)----|-1-------------|------------------o||
|------------1-|---1--1---1-(1)----|-1-------------|-1-----------------||




Guitar 3

  W             W
|-1-----------|---------------|
|-4-----------|---------------|
|-3-----------|---------------|
|-1-----------|---------------|
|-------------|---------------|
|-------------|---------------|


     Q.     E +H         Q    E Q.        Q       Q.          E +H             H        H
||-------------------|-------------------------|----------------------------|--------------------|
||o---------6-(6)----|--------7-6--------------|--------------4-(4)---------|-----------4--------|
||----------8-(8)----|-------------------------|--------------5-(5)---------|-----------4--------|
||----------8-(8)----|-------------------------|--------------6-(6)---------|-----------6--------|
||o------------------|-------------------------|----------------------------|--------------------|
||-------------------|-------------------------|----------------------------|--------------------|


   Q.            E +H        Q.     E +H          Q.            E +H       Q.     Q      E  Q
|-------------------------|--------------------|-------------------------|-----------------------|
|----------------7-(7)----|---------6-(6)------|----------------4-(4)----|--------4--------------|
|----------------8-(8)----|---------6-(6)------|----------------5-(5)----|--------4------4-------|
|----------------8-(8)----|---------8-(8)------|----------------6-(6)----|--------6------6--6----|
|-------------------------|--------------------|-------------------------|------------------6----|
|-------------------------|--------------------|-------------------------|-----------------------|


      Q.     E +H        Q.     E +H            Q.            H       E   E E  E E  q   Q
|---------------------|----------------------|--------------------------|------------------|
|------------6-(6)----|---------7-(7)--------|----------------6-------6-|---6--6-6--6------|
|------------6-(6)----|---------8-(8)--------|----------------8-------7-|---7--7-7--8---6--|
|------------8-(8)----|---------8-(8)--------|----------------8-------8-|---8--8-8--8---8--|
|---------------------|----------------------|--------------------------|------------------|
|---------------------|----------------------|--------------------------|------------------|


   Q.     E  +H               H         q     Q       Q.          E +H          Q.         q      E  q
|--------------------------|-----------------------|-------------------------|----------------------------|
|---------7--(7)-----------|------------7-----6----|--------------4-(4)------|-------------4---------3----|
|---------8--(8)-----------|------------8-----6----|--------------5-(5)------|-------------3---------3----|
|---------8--(8)-----------|------------8-----8----|--------------6-(6)------|-------------4---------3----|
|--------------------------|-----------------------|-------------------------|----------------------------|
|--------------------------|-----------------------|-------------------------|----------------------------|


   W               W                 Q  E E E E Q    E E E E +E  E Q
|--------------|-------------------|---------------|-------9-(9)-------||
|--4-----------|-------------------|----------6----|-----9---------6--o||
|--3-----------|-------------------|----6-6-6-6----|---8---------6-----||
|--1-----------|-------------------|----8-8-8-8----|-8-----------------||
|--------------|-------------------|---------------|------------------o||
|--------------|-------------------|---------------|-------------------||

h - hammer on
p - pull off

W - whole
H - half
Q - quarter
E - 8th
S - 16th
a - acciaccatura
+ - note tied to previous
. - note dotted

Uncapitalized letters represent notes that are staccato (1/2 duration)

        
Comments

No comments yet