Gametabs
Home
Tabs
Random

Marshmallow Justice

Average rating: 5.000

3 ratings

Composer:

Tabber:

Style:

Instrument:

Created: October 22, 2013 at 12:00 AM

            Marshmellow Justice
Nisemonogatari
Eri Kitamura
corntastic
19 10 2013

Be aware that the YouTube link is half a step lower than the actual song and this tab.
http://www.youtube.com/watch?v=4pMg5F4OkQU

The soundcloud link above is the correct pitch


e-----------------------------------------------------------------------------------
B-----------------------------------------------------------------------------------
G----9-9-7-7-6--------------6-7-6-----------6-7-9----9-----------6-7-6--------------
D--7-----------9--7----7--9-------7----7--9-------7----7----7--9--------9--7--9--9--
A-----------------------------------------------------------------------------------
E-----------------------------------------------------------------------------------

e-----------------------------------------------------------------------------------
B-----------------------------------------------------------------------------------
G----9-9-7-7-6--------------6-7-6-----------6-7-9----9-----------6-7-6--------------
D--7-----------9--7----7--9-------7----7--9-------7----7----7--9-------7-7--9--7-7--
A-----------------------------------------------------------------------------------
E-----------------------------------------------------------------------------------

e-------------------------------------------------------------------------
B-----7------------------------------7----------10--9--7--9--10-----------
G--------9----9--7--6--------6----------9----9----------------------------
D--7-------------------9--7-------7---------------------------------------
A-------------------------------------------------------------------------
E-------------------------------------------------------------------------

e-------------------------------------------------------------------------
B-----7---------------------------------------------7--9------------------
G--------9----9--7--6--------6---------6--7----7--9-----------------------
D--7-------------------9--7-------7--9------------------------------------
A-------------------------------------------------------------------------
E-------------------------------------------------------------------------


______________________________________________________________________________________


e-------------------------------------------------------------------------
B----10-10-9-10----10--9--7-----7-----------------------------------------
G--7-------------------------9-----9--------------------------------------
D---------------------------------------7-7-------------------------------
A-------------------------------------------------------------------------
E-------------------------------------------------------------------------

e-------------------------------------------------------------------------
B-------------------7--7--9--9----7-10------------------------------------
G-----6--7----7--6--------------------------------------------------------
D--9----------------------------------------------------------------------
A-------------------------------------------------------------------------
E-------------------------------------------------------------------------

e---------------------------------------7---------------------------------
B----10-10-9-10----10--9--7-----7---------10------------------------------
G--9-------------------------9-----9--------------------------------------
D-------------------------------------------------------------------------
A-------------------------------------------------------------------------
E-------------------------------------------------------------------------

e-------------------------------------------------------------------------
B--------------------------9-10-------------------------------------------
G--9-s7.------9-s7.------9------------------------------------------------
D--------7----------7-----------------------------------------------------
A-------------------------------------------------------------------------
E-------------------------------------------------------------------------

        
Comments

No comments yet