Gametabs
Home
Tabs
Random

The Prestigious Mask

Average rating: No ratings

Composer:

Tabber:

Style:

Instrument:

Created: November 04, 2010 at 12:00 AM

            The Prestigious Mask
Nier
Composed by Keiichi Okabe, Kakeru Ishihama, Keigo Hoashi, Takafumi Nishimura
Tabbed by hslesperance
10/3/10

Standard Tuning




Guitar 1

 1/4     3/4
   Q       Q    Q   Q     H.         Q    Q   Q     H.
|-----||--10---12--14--|----------|------10--12--|--------|
|-----||o--------------|-12-------|-14-----------|-10-----|
|-11--||---------------|----------|--------------|--------|
|-----||---------------|----------|--------------|--------|
|-----||o--------------|----------|--------------|--------|
|-----||---------------|----------|--------------|--------|


   Q    Q   Q     Q    Q   Q     H.           H     Q
|----------10--|-12---10------|------------|-----------|
|-12---14------|----------14--|-12---------|-11--------|
|--------------|--------------|------------|--------9--|
|--------------|--------------|------------|-----------|
|--------------|--------------|------------|-----------|
|--------------|--------------|------------|-----------|

                      |--3--|
   H      Q     Q.    S  S  S Q     H.         H     Q
|------------|-------------------|----------|------------|
|--------10--|--9----------------|----------|------------|
|-11---------|-------11h13p11-9--|-11-------|--------9---|
|------------|-------------------|----------|------------|
|------------|-------------------|----------|------------|
|------------|-------------------|----------|------------|

                      |--3--|
   H      Q     Q.    S  S  S Q     H.           H      Q
|------------|-------------------|------------|-------------|
|--------10--|-12----10h12p10-9--|------------|-------------|
|-11---------|-------------------|-11---------|--------11---|
|------------|-------------------|------------|-------------|
|------------|-------------------|------------|-------------|
|------------|-------------------|------------|-------------|

                                      |--3---|
   H      E  E    H      Q     Q.    +S   S  S  E  E    H      Q
|-10-----12-14-|------------|------------------------|-------------|
|--------------|-14-----10--|-12----(12)h14p12-10----|-10----------|
|--------------|------------|---------------------12-|--------11---|
|--------------|------------|------------------------|-------------|
|--------------|------------|------------------------|-------------|
|--------------|------------|------------------------|-------------|


   H      E  E    H      Q     H.         H.
|-10-----12-14-|------------|----------|--------|
|--------------|-14-----10--|-12-------|-14-----|
|--------------|------------|----------|--------|
|--------------|------------|----------|--------|
|--------------|------------|----------|--------|
|--------------|------------|----------|--------|


   H.         +H.         W          W
|-10-------|-(10)------|----------|--------|
|----------|-----------|----------|--------|
|----------|-----------|----------|--------|
|----------|-----------|----------|--------|
|----------|-----------|----------|--------|
|----------|-----------|----------|--------|


   W          W         W           H     Q
|----------|----------|----------|-----------|
|----------|----------|----------|-----------|
|----------|----------|----------|--------9--|
|----------|----------|----------|-----------|
|----------|----------|----------|-----------|
|----------|----------|----------|-----------|

                      |--3--|
   H      Q     Q.    S  S  S Q     H.            H       Q
|------------|-------------------|-------------|--------------|
|--------10--|--9----------------|-------------|--------------|
|-11---------|-------11h13p11-9--|-11----------|----------9---|
|------------|-------------------|-------------|--------------|
|------------|-------------------|-------------|--------------|
|------------|-------------------|-------------|--------------|

                      |--3--|
   H      Q     Q.    S  S  S Q     H.               H       Q
|------------|-------------------|----------------|--------------|
|--------10--|-12----10h12p10-9--|----------------|--------------|
|-11---------|-------------------|-11-------------|---------11---|
|------------|-------------------|----------------|--------------|
|------------|-------------------|----------------|--------------|
|------------|-------------------|----------------|--------------|

                                       |--3---|
   H      E  E    H       Q     Q.    +S   S  S  E  E    H       Q
|-10-----12-14-|-------------|------------------------|--------------|
|--------------|-14------10--|-12----(12)h14p12-10----|-10-----------|
|--------------|-------------|---------------------12-|---------11---|
|--------------|-------------|------------------------|--------------|
|--------------|-------------|------------------------|--------------|
|--------------|-------------|------------------------|--------------|


   H      E  E    H       Q     H.          H.
|-10-----12-14-|-------------|-----------|-------------||
|--------------|-14------10--|-12--------|-14---------o||
|--------------|-------------|-----------|-------------||
|--------------|-------------|-----------|-------------||
|--------------|-------------|-----------|------------o||
|--------------|-------------|-----------|-------------||




Guitar 2

 1/4     3/4
   Q       H.             H.         H.             H.
|-----||--^2-----------|-^0-------|-^2-----------|-^0-----|
|-----||o-^3-----------|-^0-------|-^2-----------|-^2-----|
|-----||--^4-----------|-^1-------|-^2-----------|-^2-----|
|-----||--^4-----------|-^2-------|-^0-----------|-^2-----|
|-----||o-^2-----------|-^2-------|--------------|-^0-----|
|-----||---------------|----------|--------------|--------|


   H.             H.             Q   Q  Q     H.
|-^2-----------|-^0-----------|------------|-^2--------|
|-^3-----------|-^0-----------|------------|-^2--------|
|-^4-----------|-^1-----------|--4------4--|-^3--------|
|-^4-----------|-^2-----------|--4---4-----|-^4--------|
|-^2-----------|-^2-----------|--2---------|-^4--------|
|--------------|--------------|------------|-^2--------|


   H.           H.                  H.         H.
|-^2---------|-^0----------------|-^2-------|------------|
|-^3---------|-^0----------------|-^3-------|-^2---------|
|-^4---------|-^1----------------|-^4-------|-^2---------|
|-^4---------|-^2----------------|-^4-------|-^2---------|
|-^2---------|-^2----------------|-^2-------|-^0---------|
|------------|-------------------|----------|------------|


   H.           H.                  Q   Q  Q     H.
|-^2---------|-^0----------------|------------|-^2----------|
|-^3---------|-^0----------------|---------2--|-^2----------|
|-^4---------|-^1----------------|--4---------|-^3----------|
|-^4---------|-^2----------------|------4-----|-^4----------|
|-^2---------|-^2----------------|------------|-^4----------|
|------------|-------------------|------------|-^2----------|


   H.             H.           H.                       H.
|-^3-----------|-^2---------|-^0---------------------|-^2----------|
|-^3-----------|-^2---------|-^0---------------------|-^3----------|
|-^4-----------|-^3---------|-^1---------------------|-^4----------|
|-^5-----------|-^4---------|-^2---------------------|-^4----------|
|-^5-----------|-^4---------|-^2---------------------|-^2----------|
|-^3-----------|-^2---------|------------------------|-------------|


   H.             H.           H.         H.
|-^3-----------|-^2---------|-^0-------|-^2-----|
|-^3-----------|-^2---------|-^0-------|-^2-----|
|-^4-----------|-^3---------|-^1-------|-^3-----|
|-^5-----------|-^4---------|-^2-------|-^4-----|
|-^5-----------|-^4---------|-^2-------|-^4-----|
|-^3-----------|-^2---------|----------|-^2-----|


   H.          H.         H.         H.
|-^2-------|-^-0-------|-^2-------|--------|
|-^3-------|-^-0-------|-^2-------|-^2-----|
|-^4-------|-^-1-------|-^2-------|-^2-----|
|-^4-------|-^-2-------|-^0-------|-^2-----|
|-^2-------|-^-2-------|----------|-^0-----|
|----------|-----------|----------|--------|


   H.         H.        Q  Q  Q     H.
|-^2-------|-^0-------|----------|-^2--------|
|-^3-------|-^0-------|----------|-^2--------|
|-^4-------|-^1-------|-------4--|-^3--------|
|-^4-------|-^2-------|-4--------|-^4--------|
|-^2-------|-^2-------|----4-----|-^4--------|
|----------|----------|----------|-^2--------|


   H.           H.                  H.            H.
|-^2---------|-^0----------------|-^2----------|--------------|
|-^3---------|-^0----------------|-^3----------|-^2-----------|
|-^4---------|-^1----------------|-^4----------|-^2-----------|
|-^4---------|-^2----------------|-^4----------|-^2-----------|
|-^2---------|-^2----------------|-^2----------|-^0-----------|
|------------|-------------------|-------------|--------------|


   H.           H.                  Q   Q      Q     H.
|-^2---------|-^0----------------|----------------|-^2-----------|
|-^3---------|-^0----------------|-------------2--|-^2-----------|
|-^4---------|-^1----------------|--4-------------|-^3-----------|
|-^4---------|-^2----------------|------4---------|-^4-----------|
|-^2---------|-^2----------------|----------------|-^4-----------|
|------------|-------------------|----------------|-^2-----------|


   H.             H.            H.                       H.
|-^3-----------|-^2----------|-^0---------------------|-^2-----------|
|-^3-----------|-^2----------|-^0---------------------|-^3-----------|
|-^4-----------|-^3----------|-^1---------------------|-^4-----------|
|-^5-----------|-^4----------|-^2---------------------|-^4-----------|
|-^5-----------|-^4----------|-^2---------------------|-^2-----------|
|-^3-----------|-^2----------|------------------------|--------------|


   H.             H.            H     Q     H      Q
|-^3-----------|-^2----------|-^0-----2--|-^2------2---||
|-^3-----------|-^2----------|-^0--------|-^2---------o||
|-^4-----------|-^3----------|-^1--------|-^3----------||
|-^5-----------|-^4----------|-^2--------|-^4----------||
|-^5-----------|-^4----------|-^2--------|-^4---------o||
|-^3-----------|-^2----------|-----------|-^2----------||




Guitar 3 - Enters at measure 34

   W            W                   Q    Q  Q     Q    Q  Q
|------------|-------------------|-------------|--------------|
|------------|-------------------|------10-----|------10------|
|------------|-------------------|----------7--|--9-----------|
|------------|-------------------|-------------|--------------|
|------------|-------------------|-------------|--------------|
|------------|-------------------|-------------|--------------|


   W            W                   Q   Q      Q     Q   Q   Q
|------------|-------------------|-------------9--|--------------|
|------------|-------------------|------9b9.5-----|------7-------|
|------------|-------------------|----------------|--------------|
|------------|-------------------|----------------|--------------|
|------------|-------------------|----------------|--------------|
|------------|-------------------|----------------|--------------|


   H      E  E    Q   H         H                E  E    Q   H
|--------------|-------------|------------------------|--------------|
|--------------|-------------|-------------------7----|--------------|
|---------6--7-|--9----------|----------------------9-|--7-----------|
|--------------|-------------|------------------------|--------------|
|--------------|-------------|------------------------|--------------|
|--------------|-------------|------------------------|--------------|


   H      E  E    Q   H         H     Q     Q   Q  Q
|--------------|-------------|-----------|-------------||
|--------------|-------------|-----------|------------o||
|---------6--7-|--9----------|--------7--|--6---9------||
|--------------|-------------|-----------|-------------||
|--------------|-------------|-----------|------------o||
|--------------|-------------|-----------|-------------||

h - hammer on
p - pull off
b - bend
.5 - quarter bend

W - whole
H - half
Q - quarter
E - 8th
S - 16th
+ - note tied to previous
. - note dotted

        
Comments

No comments yet