Gametabs
Home
Tabs
Random

Song of the Ancients - Devola

Average rating: 4.750

4 ratings

Composer:

Tabber:

Style:

Instrument:

Created: October 21, 2014 at 12:00 AM

            #----------------------------------PLEASE NOTE---------------------------------#
#This file is the author's own work and represents their interpretation of the #
#song. You may only use this file for private study, scholarship, or research. #
#------------------------------------------------------------------------------##

                          SONG OF THE ANCIENTS (DEVOLA)
                          As recorded by Keiichi Okabe
                 (From the 2010 Album NIER ORIGINAL SOUNDTRACK)

Music by Keiichi Okabe
Arranged by Jonathan Randle
Transcribed by Jonathan Randle

Standard Tuning - Capo 3

  Q=80
 6/8
  Gtr I
  E E E E E E   E E E Q.    E E E E E E   E E E E E E   E E E E E E
|-----3-----3-|-----3-----|-------0-----|-------------|-------------|
|-0-1---0-1---|-0-1-------|-------1-----|-------1-----|-------1-----|
|-------0-----|-0-----2---|-----0---0---|-----0---0---|-----2---2---|
|-------------|-----------|---2-------2-|---2-------2-|---2-------2-|
|-0-----------|-----------|-0-----------|-0-----------|-------------|
|-------------|-----------|-------------|-------------|-1-----------|


  E E E E E E   E E E E E E   E E E E E E   E E E E E E   E E E E E E
|-0-----------|-------0-----|-0-----------|-------0-----|-0-----------|
|-------1-----|-------1-----|-------1-----|-------1-----|-------1-----|
|-----2---2---|-----0---0---|-----0---0---|-----2---2---|-----2---2---|
|---2-------2-|---2-------2-|---2-------2-|---2-------2-|---2-------2-|
|-------------|-0-----------|-------------|-------------|-------------|
|-------------|-------------|-------------|-1-----------|-------------|


  E E E E E E   E E E E E E   E E E E E E   E E E E E E   E E E E E E
|-------------|-----------0-|-------0-----|-------3-----|-------0-----|
|-------3-----|-------------|-------1-----|-------5-----|-------1-----|
|-------2-----|-2---2-1-----|-----0---0---|---0-5---5-0-|-----2---2---|
|-0---3---3-0-|---0-----0---|---2-------2-|-------------|---2-------2-|
|---3---------|-------------|-0-----------|-------------|-------------|
|-------------|-0-----------|-------------|-3-----------|-1-----------|


  E E E E E E   E E E E E E   E E E E E E   E E E E E E   E E E Q  E
|-------0-----|-------------|-------0-----|-------------|-7-----3----|
|-------1-----|-------3-----|-------0-----|-0-1---1-----|-----5----5-|
|-----2---2---|-------2-----|-----1---1---|---------0---|-0-5--------|
|---2-------2-|-0---3---3---|---2-------2-|-----2-----2-|------------|
|-------------|---3-------3-|-------------|-0-----------|------------|
|-0-----------|-------------|-0-----------|-------------|------------|


  E E E E E E   E E E E E E   E E E E E E   E E E Q.     E E E E E E
|-------------|-0-----------|-------0-----|-7-----3----|-------------|
|-------1-----|-------1-----|-0-1---------|-----5------|-------1-----|
|-----2---2---|-----2---2---|-----------0-|-0-5--------|-----2---2---|
|---2-------2-|---2-------2-|-----2---2---|------------|---2-------2-|
|-------------|-------------|-0-----------|------------|-------------|
|-1-----------|-------------|-------------|------------|-1-----------|


  E E E Q.     E E E E E E   E E E E E E   E E E E E E   E E E E Q
|-0----------|-------------|-------------|-------------|------------|
|-------1----|-------3-----|-----------0-|-----0-1-----|-------5----|
|-----2------|-------2-----|-----2-1-----|-----0-0-----|---0-5---5--|
|---2--------|-0---3---3-0-|---0-----0---|---2---------|------------|
|------------|---3---------|-------------|-0-------3-0-|------------|
|------------|-------------|-0-----------|-------------|-3----------|


  E E E E E E   E E E E E E   E E E E Q    E E E E E E     E E E E E E
|-------0-----|-------------|------------|-------0-----||--------0-----|
|-------1-----|-------1-----|-------3----|-0-------0---||o-0-1---1-----|
|-2---2---2---|-2---2---2---|-------2----|-----1-----1-||------0---0---|
|---2-------2-|---2-------2-|-0---3---3--|---2---------||----2-------2-|
|-------------|-------------|---3--------|-------------||o-0-----------|
|-1-----------|-0-----------|------------|-0-----------||--------------|


  E E E E E E   E E E E E E   E E E E E E   E E E E E E   E E E E E E
|-------------|-------3-----|-------------|-------------|-------0-----|
|-------3-----|-----0-1-0---|-2-----2-----|-------3-----|-----1---1---|
|-----1---1---|---0-------0-|-----0---0---|-------2-----|---0-------0-|
|---2-------2-|-------------|---2-------2-|-0---3---3-0-|-------------|
|-2-----------|-3-----------|-0-----------|---3---------|-3-----------|
|-------------|-------------|-------------|-------------|-------------|


  E E E E E E   E Q  E E E   E E E E E E   E E E E E E   E E E E E E
|-------------|----------0-|-------0-----|-------------|-------3-----|
|-------3-----|-0----0-----|-------1-----|-------3-----|-----0-1-0---|
|-----2---2---|--------2---|-----0---0---|-----1---1---|---0-------0-|
|---3-------3-|---0--------|---2-------2-|---2-------2-|-------------|
|-2-----------|------------|-0-----------|-2-----------|-3-----------|
|-------------|-0----------|-------------|-------------|-------------|


  E E E E E E   E E E E E E   E E E E E E   E E E E E E  E E E E E E
|-------0-----|-------------|-------0-----|-------0-------------------||
|-2-----2-----|-------3-----|-------0-----|-------1------0-----0---0-o||
|-----0---0---|-------2-----|-----1---1---|-----2---2----2---2-1------||
|---2-------2-|-0---3---3-0-|---2-------2-|---2-------2----0-----0----||
|-0-----------|---3---------|-------------|--------------------------o||
|-------------|-------------|-0-----------|-1------------0------------||


  E E E E E E
|----------------*|
|-------1--------*|
|-2---2---2------*|
|---2-------2----*|
|----------------*|
|-0--------------*|


Duration Legend
---------------
W - whole; H - half; Q - quarter; E - 8th; S - 16th; T - 32nd; X - 64th; a - acciaccatura
+ - note tied to previous; . - note dotted; .. - note double dotted
Uncapitalized letters represent notes that are staccato (1/2 duration)
Irregular groupings are notated above the duration line
Duration letters will always appear directly above the note/fret number it represents the
duration for.  Duration letters with no fret number below them represent rests.  Multi-
bar rests are notated in the form Wxn, where n is the number of bars to rest for.  Low
melody durations appear below the staff

Tablature Legend
----------------
 h   - hammer-on
 p   - pull-off
 b   - bend
 pb  - pre-bend
 r   - bend release (if no number after the r, then release immediately)
 /\  - slide into or out of (from/to "nowhere")
 s   - legato slide
 S   - shift slide
  - natural harmonic
[n]  - artificial harmonic
n(n) - tapped harmonic
 ~   - vibrato
 tr  - trill
 T   - tap
 TP  - trem. picking
 PM  - palm muting
\n/  - tremolo bar dip; n = amount to dip
 \n  - tremolo bar down
 n/  - tremolo bar up
/n\  - tremolo bar inverted dip
 =   - hold bend; also acts as connecting device for hammers/pulls
 <>  - volume swell (louder/softer)
 x   - on rhythm slash represents muted slash
 o   - on rhythm slash represents single note slash

Misc Legend
-----------
 |  - bar
||  - double bar
||o - repeat start
o|| - repeat end
*|  - double bar (ending)
 :  - bar (freetime)
 $  - Segno
 &  - Coda
Tempo markers -  = BPM(8/16=s8/s16), where s8 = swing 8ths, s16 = swing 16ths


***************************************************************************************
* Generated using Power Tab Editor by Brad Larsen - http://powertab.guitarnetwork.org *
***************************************************************************************
        
Comments

@robotx2300 (June 21, 2017 at 7:35 PM)

There was a better tab for this that got removed. Does anybody have it?

Edit: Here it is

E  E  E  E  E  E  E  E  E  E  Q       E  E  E  E  E  E  E  E  E  E  Q
E||--------3--------3--------3----------|--------3--------3--------3----------|
B||--0--1-----0--1-----0--1-----0--1----|--0--1-----0--1-----0--1-----0--1----|
G||-------------------------------------|-------------------------------------|
D||-------------------------------------|-------------------------------------|
A||--0----------------------------------|--0----------------------------------|
E||-------------------------------------|-------------------------------------|

E  E  E  E  E  E  E  E  E  E  E  E     E  E  E  E  E  E  E  E  E  E  E  E
-----------0--------------------------|--------------------------------------|
--0--1--1-----1-----------1--0--------|-----------1-----------------1--------|
-----------------2--------------0-----|--2-----------2-----------------2-----|
-----------------------2-----------2--|--------3--------3--------3--------3--|
--0-----------------0-----------------|-----3-----------------3--------------|
-----------------------------3--------|--1-----------------1-----------------|

E  E  E  E  E  E  E  E  E  E  E  E     E  E  E  E  E  E  E  E  E  E  E  E
-----------0--------------------------|--0-----------------------------------|
--0--1--1-----1-----------1--0--------|-----------1-----------------1--------|
-----------------2--------------0-----|--------------2-----------------2-----|
-----------------------2-----------2--|--------3--------3--------3--------3--|
--0-----------------0-----------------|-----3-----------------3--------------|
-----------------------------3--------|--1-----------------1-----------------|

E  E  E  E  E  E  E  E  E  E  E  E     E  E  E  E  E  E  E  E  E  E  E  E
--------0-----------------1--0--------|-----------0-----------------0--------|
-----------0--------------------3--0--|--0--1--1-----1-----------------1-----|
-----2--------2-----------------------|-----------------2--------2--------2--|
--3--------------3-----------2--------|-----2-----------------2--------------|
--0--------------------2--------------|--0-----------------0-----------------|
--------------------0-----------------|--------------------------------------|

E  E  E  E  E  E  E  E  E  E  E  E     E  E  E  E  E  E  E  E  E  E  E  E
--------------------------------------|---------------------------------------||
--0--1--1-----------------1--0--------|---------------------------------------||
-----------2--------------------0-----|--2--------2--------1--------1--------*||
--------2-----2--------------2-----2--|--------0-----0-----------2-----2-----*||
-----------------2-----2--------------|-----2-----------2-----2-----------2---||
--3-----------------3-----------------|--0-----------------0------------------||

E  E  E  E  E  E  E  E  E  E  E  E     E  E  E  E  E  E  E  E  E  E  E  E
---0--------------1--0-----1--0--------|-----------------------------------0--|
------------1--------------------3--0--|--0--1--1-----------2--------2--3-----|
*--------2-----2--------------0--------|-----------0--------------------------|
*-----2-----------2-----2--------------|--------2-----2-----------2-----------|
---0-----------------2--------------2--|-----3-----------3-----0--------------|
---------------------------------------|--0-----------------0-----------------|

E  E  E  E  E  E  E  E  E  E  E  E     E  E  E  E  E  E  E  E  E  E  E  E   3x
--3--1--1-----------3--1--1--------1--|--0------------------------------------||
-----------3--------------------1-----|-----------0-----------------0---------||
--------------2--------------0--------|--------2-----2-----------------1-----*||
--0--------------0--------------------|-----0-----------0--------2--------2--*||
--------------------3-----------------|--2--------------------2---------------||
--------------------------------------|--------------------0------------------||

E  E  E  E  E  E  E  E  E  E  E  E     E  E  E  E  E  E  E  E  E  E  E  E
-----------0--------------------------|-----------3--------------------------|
--------------1--------------3--------|--------------1--------------2--------|
--------2--------2--------------1-----|--------0--------0--------2-----2-----|
-----2--------------------2--------2--|-----2-----------------2-----------2--|
--0--------------------2--------------|--3-----------------0-----------------|
--------------------0-----------------|--------------------------------------|

E  E  E  E  E  E  E  E  E  E  E  E     E  E  E  E  E  E  E  E  E  E  E  E
--------------------------------------|--------------------------------------|
-----------3-----------------0--------|-----------1-----------------0--------|
--------2-----2-----------------1-----|--------------2-----------------1-----|
-----0-----------0--------2--------2--|--------3--------3--------2--------2--|
--0--------------------2--------------|-----3-----------------2--------------|
--------------------0-----------------|--1-----------------0-----------------|

E  E  E  E  E  E  E  E  E  E  E  E     E  E  E  E  E  E  E  E  E  E  E  E
-----------0--------------------------|-----------3--------------------------|
--------------1--------------3--------|--------------1--------------2--------|
--------2--------2--------------1-----|--------0--------0--------2-----2-----|
-----2--------------------2--------2--|-----2-----------------2-----------2--|
--0--------------------2--------------|--3-----------------0-----------------|
--------------------0-----------------|--------------------------------------|

E  E  E  E  E  E  E  E  E  E  E  E
--------------------------------------||
-----------3-----------------0--------||
--------2-----2-----------------1-----||
-----0-----------0--------2--------2--||
--0--------------------2--------------||
--------------------0-----------------||

@hammys (May 10, 2018 at 3:14 AM)

I've adjusted this tab for Drop D tuning, Capo 3, since it sounds closer to the original. It's more difficult, but definitely playable.

Drop D - Capo 3

Q=80 6/8 Gtr I

E E E E E E   E E E Q.    E E E E E E   E E E E E E   E E E E E E
|-----3-----3-|-----3-----|-------0-----|-------------|-------------|
|-0-1---0-1---|-0-1-------|-------1-----|-------1-----|-------1-----|
|-------0-----|-0-----2---|-----0---0---|-----0---0---|-----2---2---|
|-------------|-----------|---2-------2-|---2-------2-|---2-------2-|
|-0-----------|-----------|-0-----------|-0-----------|-------------|
|-------------|-----------|-------------|-------------|-3-----------|

E E E E E E   E E E E E E   E E E E E E   E E E E E E   E E E E E E
|-0-----------|-------0-----|-0-----------|-------0-----|-0-----------|
|-------1-----|-------1-----|-------1-----|-------1-----|-------1-----|
|-----2---2---|-----0---0---|-----0---0---|-----2---2---|-----2---2---|
|---2-------2-|---2-------2-|---2-------2-|---2-------2-|---2-------2-|
|-------------|-0-----------|-------------|-------------|-------------|
|-------------|-------------|-------------|-3-----------|-------------|

E E E E E E   E E E E E E   E E E E E E   E E E E E E   E E E E E E
|-------------|-----------0-|-------0-----|-------3-----|-------0-----|
|-------3-----|-------------|-------1-----|-------5-----|-------1-----|
|-------2-----|-2---2-1-----|-----0---0---|---0-5---5-0-|-----2---2---|
|-----3---3-0-|---0-----0---|---2-------2-|-------------|---2-------2-|
|---3---------|-------------|-0-----------|-------------|-------------|
|-0-----------|-2-----------|-------------|-5-----------|-3-----------|

E E E E E E   E E E E E E   E E E E E E   E E E E E E   E E E Q  E
|-------0-----|-------------|-------0-----|-------------|-7-----3----|
|-------1-----|-------3-----|-------0-----|-0-1---1-----|-----5----5-|
|-----2---2---|-------2-----|-----1---1---|---------0---|-0-5--------|
|---2-------2-|-----3---3---|---2-------2-|-----2-----2-|------------|
|-------------|---3-------3-|-------------|-0-----------|------------|
|-2-----------|-0-----------|-2-----------|-------------|------------|

E E E E E E   E E E E E E   E E E E E E   E E E Q.     E E E E E E
|-------------|-0-----------|-------0-----|-7-----3----|-------------|
|-------1-----|-------1-----|-0-1---------|-----5------|-------1-----|
|-----2---2---|-----2---2---|-----------0-|-0-5--------|-----2---2---|
|---2-------2-|---2-------2-|-----2---2---|------------|---2-------2-|
|-------------|-------------|-0-----------|------------|-------------|
|-3-----------|-------------|-------------|------------|-3-----------|

E E E Q.     E E E E E E   E E E E E E   E E E E E E   E E E E Q
|-0----------|-------------|-------------|-------------|------------|
|-------1----|-------3-----|-----------0-|-----0-1-----|-------5----|
|-----2------|-------2-----|-----2-1-----|-----0-0-----|---0-5---5--|
|---2--------|-----3---3-0-|---0-----0---|---2---------|------------|
|------------|---3---------|-------------|-0-------3-0-|------------|
|------------|-0-----------|-2-----------|-------------|-5----------|

E E E E E E   E E E E E E   E E E E Q    E E E E E E     E E E E E E
|-------0-----|-------------|------------|-------0-----||--------0-----|
|-------1-----|-------1-----|-------3----|-0-------0---||o-0-1---1-----|
|-2---2---2---|-2---2---2---|-------2----|-----1-----1-||------0---0---|
|---2-------2-|---2-------2-|-----3---3--|---2---------||----2-------2-|
|-------------|-------------|---3--------|-------------||o-0-----------|
|-3-----------|-2-----------|-0----------|-2-----------||--------------|

E E E E E E   E E E E E E   E E E E E E   E E E E E E   E E E E E E
|-------------|-------3-----|-------------|-------------|-------0-----|
|-------3-----|-----0-1-0---|-2-----2-----|-------3-----|-----1---1---|
|-----1---1---|---0-------0-|-----0---0---|-------2-----|---0-------0-|
|---2-------2-|-------------|---2-------2-|-----3---3-0-|-------------|
|-2-----------|-3-----------|-0-----------|---3---------|-3-----------|
|-------------|-------------|-------------|-0-----------|-------------|

E E E E E E   E Q  E E E   E E E E E E   E E E E E E   E E E E E E
|-------------|----------0-|-------0-----|-------------|-------3-----|
|-------3-----|-0----0-----|-------1-----|-------3-----|-----0-1-0---|
|-----2---2---|--------2---|-----0---0---|-----1---1---|---0-------0-|
|---3-------3-|---0--------|---2-------2-|---2-------2-|-------------|
|-2-----------|------------|-0-----------|-2-----------|-3-----------|
|-------------|-2----------|-------------|-------------|-------------|

E E E E E E   E E E E E E   E E E E E E   E E E E E E  E E E E E E
|-------0-----|-------------|-------0-----|-------0-------------------||
|-2-----2-----|-------3-----|-------0-----|-------1------0-----0---0-o||
|-----0---0---|-------2-----|-----1---1---|-----2---2----2---2-1------||
|---2-------2-|-----3---3-0-|---2-------2-|---2-------2----0-----0----||
|-0-----------|---3---------|-------------|--------------------------o||
|-------------|-2-----------|-2-----------|-3------------2------------||

E E E E E E
|----------------*|
|-------1--------*|
|-2---2---2------*|
|---2-------2----*|
|----------------*|
|-2--------------*|

Aside from that, everything else is perfect. Thanks for the arrangement.