Gametabs
Home
Tabs
Random

Song of the Ancients - Devola

Average rating: 5.000

2 ratings

Composer:

Tabber:

Style:

Instrument:

Created: January 18, 2019 at 12:00 AM

            I tried to stay as close as possible from what Devola is playing on her lute. 
All of the chords are brushed downwards.

Tempo = 81 bpm
Signature 6/8

Standard tuning - Capo 3

Legend
L - tied note
x - dead note
h - hammer on/pull off
b - bend
s - slide
~ - vibrato
g - ghost note
> - accentuated note
t - trill
M - palm mute
. - staccato
P - popping (bass)
S - slapping (bass)
+ - tapping
W - wide vibrato
< - fade in
w - whammy bar
= - tremolo picking
v - brush up
^ - brush down
V - pick stroke up
n - pick stroke down

                                                   ^                    
E |--------3--------3----|--------3-------------|-----------0----------|
B |--0--1-----0--1-------|--0--1----------------|--1-----------1-------|
G |----------------------|-----------2----------|--2-----2--------2----|
D |----------------------|-----------2----------|--2--2----------------|
A |--0-------------------|----------------------|--0-------------------|
E |----------------------|----------------------|----------------------|

                         ^                                           
-----------0----------|----------------------|--0-------------------|
--------------1-------|--1--------1----------|-----------1----------|
--------2--------2----|--2-----------2-------|--------------2-------|
-----2----------------|--3-----3--------3----|--------3--------3----|
--0-------------------|--3--3----------------|-----3----------------|
----------------------|--1-------------------|--1-------------------|

  ^                                             ^                    
-----------0----------|--0--------0----------|----------------------|
--1-----------1-------|--------------1-------|--1--------1----------|
--2-----2--------2----|--------2--------2----|--2-----------2-------|
--2--2----------------|-----2----------------|--3-----3--------3----|
--0-------------------|--0-------------------|--3--3----------------|
----------------------|----------------------|--1-------------------|

                         ^                      ^        ^           
--0-------------------|--0-------------------|-----------------0----|
-----------1----------|--1--------1----------|--0--------0-----0----|
--------------2-------|--2-----2-----2-------|--2-----2--1----------|
--------3--------3----|--3--3-----------3----|--2--------2----------|
-----3----------------|--0-------------------|--2--2-----2----------|
--1-------------------|----------------------|--0--------0--0-------|

  ^                      ^                      ^                    
-----------0----------|-----------3----------|----------------------|
--1-----------1-------|--1-----1--1--1-------|--1--------1----------|
--2-----2--------2----|--2--2-----------2----|--2--------2----------|
--2--2----------------|--2-------------------|--3-----3-----3-------|
--0-------------------|--0-------------------|--3--3-----------3----|
----------------------|----------------------|--1-------------------|

  ^                      ^                      ^                    
----------------------|-----------0----------|-----------0----------|
--1--------1----------|--1--------1----------|--3--------3----------|
--2--------2----------|--2-----2-----2-------|--1-----1-----1-------|
--3-----3-----3-------|--3--3-----------3----|--2--2-----------2----|
--3--3-----------3----|--0-------------------|--2-------------------|
--1-------------------|----------------------|--0-------------------|

                                                ^                    
-----------0----------|--8--------3----------|----------------------|
--0h-1--------1-------|--------------1-------|--1--------1----------|
--------2--------2----|--------2--------2----|--2-----------2-------|
-----2----------------|-----2----------------|--3-----3--------3----|
--0-------------------|--0-------------------|--3--3----------------|
----------------------|----------------------|--1-------------------|

                         ^                                           
--0-------------------|-----------0----------|--8--------3----------|
-----------1----------|--1-----------1-------|--------------1-------|
--------------2-------|--2-----2--------2----|--------2--------2----|
--------3--------3----|--2--2----------------|-----2----------------|
-----3----------------|--0-------------------|--0-------------------|
--1-------------------|----------------------|----------------------|

  ^                                             ^                    
----------------------|--0-------------------|--0-------------------|
--1--------1----------|-----------1----------|--1--------1----------|
--2-----------2-------|--------------2-------|--2-----2-----2-------|
--3-----3--------3----|--------3--------3----|--3--3-----------3----|
--3--3----------------|-----3----------------|--0-------------------|
--1-------------------|--1-------------------|----------------------|

  ^        ^             ^                      ^                    
-----------------0----|-----------0----------|-----------3----------|
--0--------0-----0----|--1-----------1-------|--1-----1--1--1-------|
--2-----2--1----------|--2-----2--------2----|--2--2-----------2----|
--2--------2----------|--2--2----------------|--2-------------------|
--2--2-----2----------|--0-------------------|--0-------------------|
--0--------0--0-------|----------------------|----------------------|

  ^                      ^                      ^                    
----------------------|----------------------|-----------0----------|
--1--------1----------|--1--------1----------|--1--------1----------|
--2--------2----------|--2--------2----------|--2-----2-----2-------|
--3-----3-----3-------|--3-----3-----3-------|--3--3-----------3----|
--3--3-----------3----|--3--3-----------3----|--0-------------------|
--1-------------------|--1-------------------|----------------------|

  ^                      ^                      ^                    
-----------0----------||----------0----------|--0-------------------|
--3--------3----------||-1-----------1-------|--3--------3----------|
--1-----1-----1-------||o2-----2--------2----|--1-----1-----1-------|
--2--2-----------2----||o2--2----------------|--2--2-----------2----|
--2-------------------||-0-------------------|----------------------|
--0-------------------||---------------------|----------------------|

  ^                      ^                      ^                    
--3--------3----------|-----------0----------|----------------------|
--1--------1----------|--2--------2----------|--3--------3----------|
--2-----2-----2-------|--2-----2-----2-------|--2--------2----------|
--2--2-----------2----|--2--2-----------2----|--3-----3-----3-------|
----------------------|----------------------|--0--3-----------3----|
----------------------|----------------------|--1-------------------|

  ^                      ^                      ^                    
--3--------3----------|----------------------|--0--------------0----|
--1--------1----------|--3--------3----------|--0--------0-----0----|
--2-----2-----2-------|--2-----2-----2-------|--2--------2----------|
--3--3-----------3----|--3--3-----------3----|--2--2--------2-------|
--0-------------------|--2-------------------|--2-----------2-------|
----------------------|----------------------|----------------------|

  ^                      ^                      ^                    
-----------0----------|--0-------------------|--3--------3----------|
--1-----------1-------|--3--------3----------|--1--------1----------|
--2-----2--------2----|--1-----1-----1-------|--2-----2-----2-------|
--2--2----------------|--2--2-----------2----|--2--2-----------2----|
--0-------------------|----------------------|----------------------|
----------------------|----------------------|----------------------|

  ^                      ^                      ^                    
-----------0----------|----------------------|-----------0----------|
--2--------2----------|--3--------3----------|--3--------3----------|
--2-----2-----2-------|--2--------2----------|--1-----1-----1-------|
--2--2-----------2----|--3-----3-----3-------|--2--2-----------2----|
--0-------------------|--0--3-----------3----|--2-------------------|
----------------------|--1-------------------|--0-------------------|

  ^                      ^        ^             ^                    
----------------------|-----------------0---||-----------0----------|
--1--------1----------|--0--------0-----0---||--1-----------1-------|
--2--------2----------|--2-----2--1--------o||--2-----2--------2----|
--3-----3-----3-------|--2--------2--------o||--2--2----------------|
--3--3-----------3----|--2--2-----2---------||--0-------------------|
--1-------------------|--0--------0--0------||----------------------|

                         ^                                           
-----------0----------|----------------------|--0-------------------|
--------------1-------|--1--------1----------|-----------1----------|
--------2--------2----|--2-----------2-------|--------------2-------|
-----2----------------|--3-----3--------3----|--------3--------3----|
--0-------------------|--3--3----------------|-----3----------------|
----------------------|--1-------------------|--1-------------------|

  ^                                             ^                    
-----------0----------|--0--------0----------|----------------------|
--1-----------1-------|--------------1-------|--1--------1----------|
--2-----2--------2----|--------2--------2----|--2-----------2-------|
--2--2----------------|-----2----------------|--3-----3--------3----|
--0-------------------|--0-------------------|--3--3----------------|
----------------------|----------------------|--1-------------------|

                         ^                      ^        ^           
--0-------------------|--0-------------------|-----------------0----|
-----------1----------|--1--------1----------|--0--------0-----0----|
--------------2-------|--2-----2-----2-------|--2-----2--1----------|
--------3--------3----|--3--3-----------3----|--2--------2----------|
-----3----------------|--0-------------------|--2--2-----2----------|
--1-------------------|----------------------|--0--------0--0-------|

  ^                      ^                      ^                    
-----------0----------|-----------3----------|----------------------|
--1-----------1-------|--1-----1--1--1-------|--1--------1----------|
--2-----2--------2----|--2--2-----------2----|--2--------2----------|
--2--2----------------|--2-------------------|--3-----3-----3-------|
--0-------------------|--0-------------------|--3--3-----------3----|
----------------------|----------------------|--1-------------------|

  ^                      ^                      ^                    
----------------------|-----------0----------|-----------0----------|
--1--------1----------|--1--------1----------|--3--------3----------|
--2--------2----------|--2-----2-----2-------|--1-----1-----1-------|
--3-----3-----3-------|--3--3-----------3----|--2--2-----------2----|
--3--3-----------3----|--0-------------------|--2-------------------|
--1-------------------|----------------------|--0-------------------|

                                                ^                    
-----------0----------|--8--------3----------|----------------------|
--0h-1--------1-------|--------------1-------|--1--------1----------|
--------2--------2----|--------2--------2----|--2-----------2-------|
-----2----------------|-----2----------------|--3-----3--------3----|
--0-------------------|--0-------------------|--3--3----------------|
----------------------|----------------------|--1-------------------|

                         ^                                           
--0-------------------|-----------0----------|--8--------3----------|
-----------1----------|--1-----------1-------|--------------1-------|
--------------2-------|--2-----2--------2----|--------2--------2----|
--------3--------3----|--2--2----------------|-----2----------------|
-----3----------------|--0-------------------|--0-------------------|
--1-------------------|----------------------|----------------------|

  ^                                             ^                    
----------------------|--0-------------------|--0-------------------|
--1--------1----------|-----------1----------|--1--------1----------|
--2-----------2-------|--------------2-------|--2-----2-----2-------|
--3-----3--------3----|--------3--------3----|--3--3-----------3----|
--3--3----------------|-----3----------------|--0-------------------|
--1-------------------|--1-------------------|----------------------|

  ^        ^             ^                      ^                    
-----------------0----|-----------0----------|-----------3----------|
--0--------0-----0----|--1-----------1-------|--1-----1--1--1-------|
--2-----2--1----------|--2-----2--------2----|--2--2-----------2----|
--2--------2----------|--2--2----------------|--2-------------------|
--2--2-----2----------|--0-------------------|--0-------------------|
--0--------0--0-------|----------------------|----------------------|

  ^                      ^                      ^                    
----------------------|----------------------|-----------0----------|
--1--------1----------|--1--------1----------|--1--------1----------|
--2--------2----------|--2--------2----------|--2-----2-----2-------|
--3-----3-----3-------|--3-----3-----3-------|--3--3-----------3----|
--3--3-----------3----|--3--3-----------3----|--0-------------------|
--1-------------------|--1-------------------|----------------------|

  ^
-----------0----------||
--3--------3----------||
--1-----1-----1-------||
--2--2-----------2----||
--2-------------------||
--0-------------------||


        
Comments

No comments yet