Gametabs
Home
Tabs
Random

Kaine Theme

Average rating: 4.000

2 ratings

Composer:

Tabber:

Style:

Instrument:

Created: March 30, 2020 at 12:00 AM

            Title: Kaine Theme
SubTitle: NeiR Replicant ver.1.22474487139
Artist: Cecil Chau (GuitarSVD)
Music: Keiichi Okabe
Tempo = 100
Nylon Guitar

Legend
L - tied note
x - dead note
h - hammer on/pull off
b - bend
s - slide
~ - vibrato
g - ghost note
> - accentuated note
t - trill
M - palm mute
. - staccato
P - popping (bass)
S - slapping (bass)
+ - tapping
W - wide vibrato
< - fade in
w - whammy bar
= - tremolo picking
v - brush up
^ - brush down
V - pick stroke up
n - pick stroke down


E |----------------------|----------------|----------------|----------|
B |--0-------------------|--------3-------|--0-------------|----------|
G |----------------------|--0--2----------|--------0-------|-----0----|
D |--------4-------------|-----------2----|-----------0----|--2-------|
A |--------------2-------|----------------|-----3----------|----------|
E |-----------0----------|----------------|----------------|----------|


----------------|----------------------|----------------|----------|
----------------|--------0-------------|----------------|----------|
--2-------------|--0--2----------------|--2-----0-------|----------|
--------0-------|-----------0-----2----|-----------0----|--4-------|
-----------2----|--------------2-------|----------------|-----5----|
----------------|----------------------|----------------|----------|


----------------------|----------------|----------------|----------|
--0-------------------|--------3-------|--0-------------|----------|
----------------------|--0--2----------|--------0-------|-----0----|
--------4-------------|-----------2----|-----------0----|--2-------|
--------------2-------|----------------|-----3----------|----------|
-----------0----------|----------------|----------------|----------|


-------------------|----------------------|-------------------------------|
--1----------------|----------------------|-------------------------------|
-----0-------------|-----0--2-------------|--2-----------1--2-------------|
-----------2-------|--4-----------2--4----|-------------------------------|
--------0-----12---|-----------5----------|-----------------------2-------|
-------------------|----------------------|--------------------0----------|


----------|--0L----------0-------------------------|
--0-------|-----------------4-----------2L-2-------|
-----1----|--------------------------2-------------|
-----2----|-----------------------2----------------|
----------|--------------------0-------------------|
----------|----------------------------------------|


-----2--4--2--0-------------------------|
--5--------------4-----------4L-4-------|
--------------------------4-------------|
-----------------------4----------------|
--------------------2-------------------|
----------------------------------------|


--0L----------0--7----------------------|
-----------------------------5L-5-------|
--------------------------6-------------|
-----------------------6----------------|
--------------------4-------------------|
----------------------------------------|


--5--4-----0L-0-------------------------|
--------7-------------------------------|
--------------------------4--------4----|
-----------------------6--------4-------|
--------------------4--------2----------|
----------------------------------------|


--0L----------0-------------------------|
-----------------4-----------2L-2-------|
--------------------------2-------------|
-----------------------2----------------|
--------------------0-------------------|
----------------------------------------|


-----2--4--2--0-------------------------|
--5--------------4-----------4L-4-------|
--------------------------4-------------|
-----------------------4----------------|
--------------------2-------------------|
----------------------------------------|


--0-----4--2--0-------------------------|-------------------------|
-----------------4----------------------|--------------4L-4-------|
--------------------------2--------4----|--6--------6-------------|
-----------------------2--------4-------|--------6----------------|
--------------------0--------2----------|-----4-------------------|
----------------------------------------|-------------------------|


--0L----------0-------------------------|
-----------------4-----------2L-2-------|
--------------------------2-------------|
-----------------------2----------------|
--------------------0-------------------|
----------------------------------------|


-----2--4--2--0-------------------------|
--5--------------4-----------4L-4-------|
--------------------------4-------------|
-----------------------4----------------|
--------------------2-------------------|
----------------------------------------|


--0L----------0--7----------------------|
-----------------------------5L-5-------|
--------------------------6-------------|
-----------------------6----------------|
--------------------4-------------------|
----------------------------------------|


--5--4-----0L-0-------------------------|
--------7-------------------------------|
--------------------------4--------4----|
-----------------------6--------4-------|
--------------------4--------2----------|
----------------------------------------|


--0L----------0-------------------------|
-----------------4-----------2L-2-------|
--------------------------2-------------|
-----------------------2----------------|
--------------------0-------------------|
----------------------------------------|


-----2--4--2--0-------------------------|
--5--------------4-----------4L-4-------|
--------------------------4-------------|
-----------------------4----------------|
--------------------2-------------------|
----------------------------------------|


--------7--7L-7-------------------------|
--5--------------------------5L-5-------|
--------------------------4-------------|
-----------------------5----------------|
--------------------3-------------------|
----------------------------------------|


--------5--5--3--2----------------------|--0-------------------------|
--3-----------------------3--------5----|-----3--------0-------------|
--------------------------------4-------|-----------------------0----|
-----------------------4-----2----------|-----------2--------2-------|
--------------------2-------------------|--------0--------2----------|
----------------------------------------|----------------------------|


--0--2----------------------|--0-----------------7----|--15----14----10------|
--------------1--------1----|--------------7--8-------|-----12----12----12---|
-----------2--------2-------|-----------9-------------|----------------------|
-----------------1----------|--------9----------------|----------------------|
--------3-------------------|-------------------------|----------------------|
----------------------------|-----0-------------------|----------------------|


-----------------7----|--12---||
-----------7--8-------|--12---||
--------9-------------|-------||
-----9----------------|-------||
----------------------|-------||
--0-------------------|-------||


        
Comments

No comments yet