Gametabs
Home
Tabs
Random

Vague Hope

Average rating: No ratings

Composer:

Tabber:

Style:

Instrument:

Created: May 27, 2020 at 12:00 AM

            Title: Vague Hope
SubTitle: NieR: Automata
Artist: Cecil Chau (GuitarSVD)
Music: Keichi Okabe
Tempo = 60
Guitarra

Legend
L - tied note
x - dead note
h - hammer on/pull off
b - bend
s - slide
~ - vibrato
g - ghost note
> - accentuated note
t - trill
M - palm mute
. - staccato
P - popping (bass)
S - slapping (bass)
+ - tapping
W - wide vibrato
< - fade in
w - whammy bar
= - tremolo picking
v - brush up
^ - brush down
V - pick stroke up
n - pick stroke down

                                                                
E |----------------------------------|-------------------------|
B |--3--5--2--3----------------------|--0-----------0----------|
G |--------------------2--------2----|-----------2-------------|
D |-----------------4--------2-------|--------0----------------|
A |--------------2--------0----------|-------------------------|
E |----------------------------------|-----3-------------------|

                                                             
--2--3----------------------------|--2-----------5h-2-------|
--------3--5----------------------|-----------2--------2----|
--------------------0--------2----|--------2----------------|
-----------------0--------2-------|-----0-------------------|
-----------------------0----------|-------------------------|
--------------0-------------------|-------------------------|

                                                                
----------------------------------|----------------------------|
--5--7--2--5----------------------|--3--2----------------------|
--------------------4--------3----|--------------2--------2----|
-----------------6--------2-------|-----------4--------2-------|
--------------4-------------------|--------2--------0----------|
-----------------------2----------|----------------------------|

                                                           
----------------------------------------------------------|
--0-----2-----3-----5--------3----------------------------|
-----------------------------------------------------4----|
-----------------------------------------0--4-----3-------|
-----------------------------------------------4----------|
--------------------------------------4-------------------|

                                                                 ^       
-------------------------|--10-------12-------9--------10---------------|
--2----------------------|-----7--------7--------10-------10------------|
--------------3----------|--------7--------7--------11-------11---------|
-----------4--2----------|----------------------------------------------|
--------4----------------|-----------------------------------------0----|
-----2-------------------|--------------------------------------7-------|

                                            
--7--------------------7-----7--10h7-------|
--------------------7-----7-----------7----|
-----------------7-------------------------|
--------------9----------------------------|
--------9h-11------------------------------|
-----7-------------------------------------|

                                               
--14-------15-------10-------12---------------|
-----12-------12-------8--------8-------------|
--------11-------12-------7--------9----------|
----------------------------------------------|
-----------------------------------------0----|
--------------------------------------0-------|

                                            
--14----------9h-10-12----------9h-10------|
--------10-12----------------12------------|
-----11-------------------11---------------|
-----------------------12-------------0----|
-------------------------------------------|
-------------------------------------------|

                                               
--12----12-14----14-9--------12---------------|
-----0--------0--------7----------------------|
--------------------------9-------------------|
----------------------------------------------|
----------------------------------------------|
--------------------------------------9--6----|

                                                     
--10-12-14-7----------------------------------------|
-----------0----------------------------------------|
----------------------------------------------------|
--------------------0--------0-----0----------------|
-----------------9--------9-----0-----12------------|
--------------7--------6-----------------4L-4-------|

                                                     
--10----10-12---------------------------------------|
--------0--12----------0-----0----------------------|
--------------------0-----0-----0-------------------|
-----------------0----------------------------------|
----------------------------------------------------|
--------------3-------------------------------------|

                                            
--9-----------------9----------------------|
--10-------------------10----12------------|
--9-----------------------9--12------------|
-------------------------------------------|
--------------------------------------0----|
-------------------------------------------|

                                               
--7-------------------------------------------|
-----10---------------------------------------|
-----------------------7-----------------7----|
--------------7h-9--11----------7h-9--11------|
-----------9-----------------9----------------|
--------7-----------------7-------------------|

                                               
-----12---------------------------------------|
--10------------------------------------------|
-----11----------------7----------------------|
--------------7h-9--11------------------------|
-----------9----------------------------------|
--------7-----------------7-------------------|

                                                     
--2-----0--5----------------------------------------|
-----3-----------------3-----------------2----------|
--0-----------------0-----0-----------2-----2-------|
-----------------0-----------0-----2-----------2----|
--------------------------------0-------------------|
--------------3-------------------------------------|

                                                                             
--2L----------------2-----------2--4----------------------------------------|
--------------------------------------------------2h-3--2-------------------|
--------------------------------2--4--------2h-4-----------4----------------|
-----------------------------------------4--------------------4--0----------|
--------------------------------------2-------------------------------------|
----------------------------------------------------------------------------|

              ^
--5--------7--5-----4-----2-----0-------------------------------------------|
--------------------------------------------3--7----------------------------|
-----------------------------------------2--------7--------------1----------|
--------------------------------------0--------------0--------2-----2-------|
-----------------------------------------------------------2-----------2----|
--------------------------------------------------------0-------------------|


-----2-----------------------------------------------2----|
--2--------2--------------------------------------2-------|
-----------3-----------------4-----------------3----------|
--------------------------4-----4-----------4-------------|
-----------------------4-----------4-----4----------------|
--------------------2-----------------2-------------------|


--2-----------------------------0-------------------------------------------|
-----------3--------3-----2-----------------------------------------2-------|
--------------------------------------------0L-0--0-----------2-----2-------|
-----------------------------------------0-----------0-----2-----2-----2----|
--------------------------------------------------------0-------------------|
--------------------------------------3-------------------------------------|


--5-------------------------------------------------------------------------|
--2--------5--------3-----------2--3----------------------------------------|
-----------------------------------------------2--------------2h-4----------|
--------------------------------------------4-----4--------4----------------|
-----------------------------------------4-----------4--2-------------------|
--------------------------------------2-------------------------------------|


----------------------------------------------------|
--5--7--12------------------------------------------|
--------------------4L-4--4--------------9----------|
-----------------6-----------6--------9-------------|
--------------4--------------------11---------------|
--------------------------------9-------------------|


--0--------2----------------------------------------------------------------|
--------------------0-----------2--------------0----------------------------|
--------------------------------------------0-----0-----0-------------------|
-----------------------------------------2-----------0----------------------|
--------------------------------------3-----------------3-------------------|
----------------------------------------------------------------------------|


-----0--2--0----------------------------------------------|
--3-----------2-------------------------------------------|
-----------------------------0L-0--------------2----------|
--------------------------0-----------------4-----4-------|
-----------------------2-----------------4-----------4----|
--------------------0--------------0--2-------------------|


--2-----5-----7-----5--------2----------------------------------------------|
-----------------------------------------------0----------------------------|
--------------------------------------------0-----0-----------2L-2----------|
-----------------------------------------0-----------0-----2--------2-------|
--------------------------------------------------------0--------------0----|
--------------------------------------3-------------------------------------|


--7--------10-------9----------------------|
-----0--------0--------0-----10------------|
--------7--------7--------7----------------|
-------------------------------------------|
-------------------------------------------|
--------------------------------------7----|


--7-----------0--------------------2----------|
-----0-----7-----7--0-----------3-------------|
--------------------0--------0----------------|
--------0-------------------------------------|
----------------------------------------------|
--------------------------------------3--3----|


--7-----------------7-----10----9-------------|
-----0--------7-----------------0-------------|
--------6--7-----7-----0-----0-----0----------|
----------------------------------------------|
--------------------------------------0--0----|
----------------------------------------------|


--7--------10-------12---------------------|--12---|--14----12-17---|
-----7--------7--------12----------12------|--12---|-----15---------|
--------7--------7--------12----12---------|--12---|--0-------------|
-----------------------------12------------|--12---|----------------|
-------------------------------------------|-------|--------12------|
--------------------------------------0----|-------|----------------|


--14L---------------14----------14-16---------------------|
--------------------------------------0--------12---------|
--------------------------------------------11------------|
-----------------------------------------12---------------|
----------------------------------------------------------|
----------------------------------------------------------|


--17-19-17-16-14-12---|-----14L---14---------------|
--15------------------|--14-------------------11---|
----------------------|--------------------11-11---|
-----------14---------|----------------------------|
----------------------|----------------------------|
----------------------|----------------------------|


--14-------10-------10----9-----12------------------------|
-----------------------------------------12----10---------|
--------------------------------------12----12------------|
----------------------------------------------------------|
----------------------------------------------------------|
----------------------------------------------------------|


--17-------12-------10----------9--10---------------------|--12----19---------|
-----------------------------------------14----0----------|-----19------------|
--------------------------------------11----11------------|-------------------|
----------------------------------------------------------|--------------11---|
----------------------------------------------------------|-------------------|
----------------------------------------------------------|-------------------|


--12---------------------------------------|-----0--2--0----------------|
-----------19-------12----------2----------|--3-----3--2--2-------------|
-------------------------------------------|--4--4--------2-------------|
--------------------------------------10---|----------------------------|
-------------------------------------------|----------------------------|
-------------------------------------------|--------------------0--2----|


--2--0--2--0----------------|-----------------------------7--10----7----|
--3--2--3--2--2-------------|--3--------------0-----7--8--------7-------|
--------------2-------------|-----------0--2-----7----------------------|
----------------------------|--------0----------------------------------|
-----------------------0----|-------------------------------------------|
--------------------3-------|-----3-------------------------------------|


--------------------0-----------0--3--5----|--5----------|
--3-----------0--3--------0--3-------------|-------------|
-----------2-----------2-------------------|-------------|
--------2----------------------------------|--------2----|
-----0-------------------------------------|--------0----|
-------------------------------------------|-------------|


--2-----0--5----------------------------------------|
--0--3--2--------------3-----------------2----------|
--0--0--------------0-----0-----------2-----2-------|
-----0-----------0-----------0-----2-----------2----|
--------------------------------0-------------------|
--------------3-------------------------------------|


--2L----------------2-----------2--4----------------------------------------|
--------------------------------------------------2h-3--2-------------------|
--------------------------------2--4--------2h-4-----------4----------------|
-----------------------------------------4--------------------4--0----------|
--------------------------------------2-------------------------------------|
----------------------------------------------------------------------------|


--5--------7--5-----4-----2-----0-------------------------------------------|
--------------------------------------------3--7----------------------------|
--------------------1--------------------2--------7--------------1----------|
--------------------------------------0--------------0--------2-----2-------|
-----------------------------------------------------------2-----------2----|
--------------------------------------------------------0-------------------|


-----2-----------------------------------------------2----|
--2--------2--------------------------------------2-------|
-----------3-----------------4-----------------3----------|
--------------------------4-----4-----------4-------------|
-----------------------4-----------4-----4----------------|
--------------------2-----------------2-------------------|


--2-----------------------------0-------------------------------------------|
-----------3--------3-----2-----------------------------------------2-------|
--------------------------------------------0L-0--0-----------2-----2-------|
-----------------------------------------0-----------0-----2-----2-----2----|
--------------------------------------------------------0-------------------|
--------------------------------------3-------------------------------------|


--5-------------------------------------------------------------------------|
--2--------5--------3-----------2h-3----------------------------------------|
-----------------------------------------------2--------------2h-4----------|
--------------------------------------------4-----4--------4----------------|
-----------------------------------------4-----------4--2-------------------|
--------------------------------------2-------------------------------------|


----------------------------------------------------|
--5--7--12------------------------------------------|
--------------------4L-4--4--------------9----------|
-----------------6-----------6--------9-------------|
--------------4--------------------11---------------|
--------------------------------9-------------------|


--0--------2----------------------------------------------------------------|
--------------------0-----------2--------------0----------------------------|
--------------------------------------------0-----0-----0-------------------|
-----------------------------------------2-----------0----------------------|
--------------------------------------3-----------------3-------------------|
----------------------------------------------------------------------------|


-----0--2--0----------------------------------------------|
--3-----------2-------------------------------------------|
-----------------------------0L-0--------------2----------|
--------------------------0-----------------4-----4-------|
-----------------------2-----------------4-----------4----|
--------------------0--------------0--2-------------------|


--2-----5-----7-----5--------2----------------------------------------------|
-----------------------------------------------0----------------------------|
--------------------------------------------0-----0-----------2L-2----------|
-----------------------------------------0-----------0-----2--------2-------|
--------------------------------------------------------0--------------0----|
--------------------------------------3-------------------------------------|


--7----------------------------------------|--2-------------------------------|
-----------------------10------------------|-----3--0-------------------------|
--------------7-----7-----------9----------|--------------------0L-0----------|
-----------9-----11------------------------|-----------------0----------------|
-------------------------------------------|----------------------------------|
-----7-------------------------------------|--------------3-------------------|


--------------------5-------------------------------------|--7--7----------|
--0--------3--2--3-----------5----------------------------|----------------|
--------------------------------------------0L-0----------|----------------|
-----------------------------------------2----------------|----------------|
----------------------------------------------------------|--------9-------|
--------------------------------------0-------------------|----------------|


--7-------||
--7-------||
--7-------||
----------||
----------||
-----7----||


        
Comments

No comments yet