Gametabs
Home
Tabs
Random

Song of the Ancients/Atonement

Average rating: No ratings

Composer:

Tabber:

Style:

Instrument:

Created: March 20, 2021 at 12:00 AM

            Title: Song of the Ancients
SubTitle: NieR Replicant/NieR Automata
Artist: Cecil Chau (GuitarSVD)
Music: Keiichi Okabe
Tempo = 80
Nylon Guitar

Legend
L - tied note
x - dead note
h - hammer on/pull off
b - bend
s - slide
~ - vibrato
g - ghost note
> - accentuated note
t - trill
M - palm mute
. - staccato
P - popping (bass)
S - slapping (bass)
+ - tapping
W - wide vibrato
< - fade in
w - whammy bar
= - tremolo picking
v - brush up
^ - brush down
V - pick stroke up
n - pick stroke down

                                                       
E |--------5--------5-------|--------5----------------|
B |--2h-3-----2h-3----------|--2h-3-------------------|
G |--2--------4-------------|--2--------4-------------|
D |-------------------------|-----------4-------------|
A |--------------------2L---|--------------------2----|
E |-------------------------|-------------------------|

                                         
----------------------------------------|
--2--3--3-------------------------------|
--2-----------------------2L-2--2-------|
-----------------------4-----------4----|
--------------------2-------------------|
----------------------------------------|

                                                                   
----------------------------------------|-------------------------|
--------3--2----------------------------|--0--------0--3h-0-------|
--------------2-----------2L-2----------|-------------------------|
-----------------4-----4----------------|--------4-----------4----|
--------------------2-------------------|-------------------------|
----------------------------------------|-----3-------------------|

                                                                
----------------------|----------------------------------------|
--------0--3h-0-------|--2--3--3-------------------------------|
----------------------|--2-----------------------2L-2--2-------|
-----4-----------4----|-----------------------4-----------4----|
----------------------|--------------------2-------------------|
--3-------------------|----------------------------------------|

                                                                   
----------------------------------------|--2----------------------|
--------3--2----------------------------|--0--------0--3h-0-------|
--------------2-----------2L-2----------|-------------------------|
-----------------4-----4----------------|--------4-----------4----|
--------------------2-------------------|-------------------------|
----------------------------------------|-----3-------------------|

                                                                
----------------------|--------2-------------------------------|
--------0--3h-0-------|-----------------------------0----------|
----------------------|-----0--------------------------0-------|
-----4-----------4----|--4--------------------------------0----|
----------------------|----------------------------------------|
--3-------------------|--------------------0-------------------|

                                         
--------3--2----------------------------|
--------------5--2----------------------|
-----------3-----------------------3----|
--------------------2-----2--2----------|
-----------------------4--------4-------|
--------------------2--------2----------|

                                                                      
----------------------------------------|----------------------------|
--2--3--3-------------------------------|-----2----------------------|
--2-----------------------2L-2--2-------|--2--2--------2--2--2-------|
-----------------------4-----------4----|--4--------4-----------4----|
--------------------2-------------------|--------0-------------------|
----------------------------------------|----------------------------|

     ^
----------------------------------------|
--2--3--3-------------------------------|
--------------------------4L-4--4-------|
-----------------------4-----------4----|
----------------------------------------|
--------------------3-------------------|


----------------------------------------|----------------------------|
--------3--2----------------------------|--0--------------0----------|
--------------2-----------2L-2----------|--------------0-----0-------|
-----------------4--0h-4----------------|-----2-----0-----------0----|
----------------------------------------|----------------------------|
--------------------2-------------------|--------0-------------------|


----------------------------|--2--------2-----3-----------2----------|
-----------------2----------|--3L-------3--------------------3-------|
--3-----------------3-------|--------------------------2--------2----|
-----4--------4--------4----|-----------------------4----------------|
-----------4----------------|--------------------2-------------------|
--------2-------------------|----------------------------------------|


--2-----3--2--0-------------------------|
-----------------2-----------2----------|
--------------------------3-----3-------|
-----------------------2-----------2----|
--------------------4-------------------|
----------------------------------------|


-----------------------------2----------|
--2--3--3-----------------3-----2-------|
-----------------------2-----------2----|
--------------------0-------------------|
----------------------------------------|
----------------------------------------|


--------------0--2----------------------|
--4--------4--------------0-------------|
-----------------------2-----2----------|
--------------------1-------------------|
----------------------------------------|
----------------------------------------|


--5--3--3-------------------------------|
-----------------0-----------0----------|
--------------------------0-----0-------|
-----------------------0-----------0----|
----------------------------------------|
--------------------0-------------------|


--5--3--3--------3----------------------|--2----------------------|
--------------0-----------3-------------|--0--------0--5h-0-------|
-----------------------2-----0----------|--------0-----------0----|
--------------------0-------------------|-------------------------|
----------------------------------------|-----4-------------------|
----------------------------------------|-------------------------|


-----------------------2----|--2--------2-----3-----------2----------|
--------------------2-------|--3L-------3--------------------3-------|
--3--------------3----------|--------------------------2--------2----|
--------------2-------------|-----------------------4----------------|
-----------4----------------|--------------------2-------------------|
--------2-------------------|----------------------------------------|


--2-----3--2--0-------------------------|
-----------------2-----------2----------|
--------------------------3-----3-------|
-----------------------2-----------2----|
--------------------4-------------------|
----------------------------------------|


-----------------------------2----------|
--2--3--3-----------------3-----2-------|
-----------------------2-----------2----|
--------------------0-------------------|
----------------------------------------|
----------------------------------------|


--------------0--2----------------------|
--4--------4--------------0-------------|
-----------------------2-----2----------|
--------------------1-------------------|
----------------------------------------|
----------------------------------------|


--5--3--3-------------------------------|
-----------------0-----------0----------|
--------------------------0-----0-------|
-----------------------0-----------0----|
----------------------------------------|
--------------------0-------------------|


--3--2--2-----0-------------------------|--------------2----------|----------||
--2--------------2-----------2----------|--3----------------------|--2-------||
--------------------------3-----3-------|-----------4-----4-------|--2-------||
-----------------------2-----------2----|--------4-----------4----|--2-------||
----------------------------------------|-------------------------|-----0----||
--------------------2-------------------|-----3-------------------|----------||


---------------------------------------------------------------------------|
----------0-----------------0--------------0-------------------------------|
o---2-----------------2-----------------2----------------------------------|
o4-----4-----------4-----4-----------4--------4----------------------------|
-------------------------------------------------2--------2--------2-------|
---------------------------------------------------------------------------|


---------------------------------------------------------------------------|||
-----------0-----------------0--------------0------------------------------|||
-----2-----------------2-----------------2--------------------------------o|||
--4-----4-----------4-----4-----------4--------4--------------------------o|||
--------------------------------------------------2--------2--------2------|||
---------------------------------------------------------------------------|||


---------------------------------------------------|
-3--2--3--3--2--3--3--2----------------------------|
o2--------2--------2-------------------------------|
o--------------------------------------------------|
-------------------------2--------2--------2-------|
---------------------------------------------------|


--0-----0--0-----0--0-------------------------------|
--2--2-----2--2-----2--2----------------------------|
----------------------------------------------------|
----------------------------------------------------|
--------------------------2--------2--------2-------|
----------------------------------------------------|


--2-----2--2-----2--2-------------------------------|
--2--2-----2--2-----2--2----------------------------|
----------------------------------------------------|
----------------------------------------------------|
--------------------------2--------2--------2-------|
----------------------------------------------------|


--0-----0--0-----0--0------------------------------|||
--2--2-----2--2-----2--2---------------------------|||
--------------------------------------------------o|||
--------------------------------------------------o|||
--------------------------2--------2--------2------|||
---------------------------------------------------|||


--------------------------------------------------------------------------------
-2--------3L-3-----3L----3-----------2------------------------------------------
o------------------------------------2------------------------------------------
o-------------------------------------------------------------------------------
-------------------------------------------------2L-2--x--2L-2--x--2L-2--x--2L-2
--------------------------------------------------------------------------------


-------------------|
-------------------|
-------------------|
-------------------|
--x--2>-x--2--x----|
-------------------|


--------------------2-----0-----------------------------------------------------
--3-----------------3-----2--------2L-2-----------------------------------------
--2--------------------------------2L-2-----2-----------------------------------
--------------------------------------------4-----------------------------------
--------------------------------------------------2L-2--x--2L-2--x--2L-2--x--2L-
--------------------------------------------------------------------------------


--------------------|-------------------------------------------------------|
--------------------|--3L---------------------------------------------------|
--------------------|--4L---------------------------------------------------|
--------------------|-------------------------------------------------------|
2--x--2>-x--2--x----|-------------------------------------------------------|
--------------------|-----3L-3--x--3L-3--x--3L-3--x--3L-3--x--3>-x--3--x----|


----------------------------------------------------------------|
--3-------------------------------------------------------------|
--4-------------------------------------------------------------|
----------------------------------------------------------------|
----------------------------------------------------------------|
--------------3L-3--x--3L-3--x--3L-3--x--3L-3--x--3>-x--3--x----|


--------------------------------------------------------------------------------
--2--------3L-3-----3L----3-----------2-----------------------------------------
--------------------------------------2-----------------------------------------
--------------------------------------------------------------------------------
--------------------------------------------------2L-2--x--2L-2--x--2L-2--x--2L-
--------------------------------------------------------------------------------


--------------------|
--------------------|
--------------------|
--------------------|
2--x--2>-x--2--x----|
--------------------|


--------------------2-----0-----------------------------------------------------
--3-----------------3-----2--------2L-2-----------------------------------------
--2--------------------------------2L-2-----2-----------------------------------
--------------------------------------------4-----------------------------------
--------------------------------------------------2L-2--x--2L-2--x--2L-2--x--2L-
--------------------------------------------------------------------------------


--------------------|--2L---------------------------------------------------|
--------------------|--3L---------------------------------------------------|
--------------------|-------------------------------------------------------|
--------------------|-------------------------------------------------------|
2--x--2>-x--2--x----|-------------------------------------------------------|
--------------------|-----3L-3--x--3L-3--x--3L-3--x--3L-3--x--3>-x--3--x----|


--2-------------------------------------------------------------|
--3-------------------------------------------------------------|
----------------------------------------------------------------|
----------------------------------------------------------------|
----------------------------------------------------------------|
--------------3L-3--x--3L-3--x--3L-3--x--3L-3--x--3>-x--3--x----|


--------------------2L----2-----------------2-----------------------------------
--------------------------------------------------------------------------------
-----------0L-0-----------------------0-----------------------------------------
--4-----------------------4-----------------------------------------------------
--------------------------------------------------------------------------------
--------------------------------------------------0L-0--x--0L-0--x--0L-0--x--0L-


--------------------|
--------------------|
--------------------|
--------------------|
--------------------|
0--x--0>-x--0--x----|


--0-----------------5-----3--------0L-0-----------------------------------------
--------------------5-----5--------2L-2-----2-----------------------------------
--------------------------------------------3-----------------------------------
--------------------------------------------------------------------------------
--------------------------------------------------------------------------------
--------------------------------------------------2L-2--x--2L-2--x--2L-2--x--2L-


--------------------|
--------------------|
--------------------|
--------------------|
--------------------|
2--x--2>-x--2--x----|


--0--------2L-2-----2L----2L----------------------------------------------------
--2--------3L-3-----3L----3L----------------------------------------------------
--------------------------------------------------------------------------------
--------------------------------------------------------------------------------
--------------------------------------------------2L-2--x--2L-2--x--2L-2--x--2L-
--------------------------------------------------------------------------------


--------------------|
--------------------|
--------------------|
--------------------|
2--x--2>-x--2--x----|
--------------------|


--2-------------------------------------------------------------|
--3-------------------------------------------------------------|
----------------------------------------------------------------|
----------------------------------------------------------------|
--------------0L-0--x--0L-0--x--0L-0--x--0L-0--x--0>-x--0--x----|
----------------------------------------------------------------|


--------------------------------------------------------------------------------
--2--------3L-3-----3L----3-----------2-----------------------------------------
--------------------------------------2-----------------------------------------
--------------------------------------------------------------------------------
--------------------------------------------------------------------------------
--------------------------------------------------3L-3--x--3L-3--x--3L-3--x--3L-


--------------------|
--------------------|
--------------------|
--------------------|
--------------------|
3--x--3>-x--3--x----|


--------------------2-----0-----------------------------------------------------
--3-----------------3-----2--------2L-2-----------------------------------------
--2--------------------------------2L-2-----2-----------------------------------
--------------------------------------------4-----------------------------------
--------------------------------------------------------------------------------
--------------------------------------------------2L-2--x--2L-2--x--2L-2--x--2L-


--------------------|-------------------------------------------------------|
--------------------|--3----------------------------------------------------|
--------------------|--4----------------------------------------------------|
--------------------|-------------------------------------------------------|
--------------------|-------------------------------------------------------|
2--x--2>-x--2--x----|-----0L-0--x--0L-0--x--0L-0--x--0L-0--x--0>-x--0--x----|


--0--3---------------------------------------------------|||
---------------------------------------------------------|||
--3--0--------------------------------------------------o|||
--------------------------------------------------------o|||
---------------------------------------------------------|||
--------2L-2--x--2L-2--x--2L-2--x--2L-2--x--2>-x--2--x---|||


-2--------3----------------------------------------------------|
-3-------------------------------------------------------------|
o------------4L-4--x--4--------4--------4--------------4-------|
o------------4L-4--x--4--------4--------4--------------4-------|
-------------2>----------2--x--2L-2--x-----2--x--2>-x-----x----|
---------------------------------------------------------------|


--2-----------------3-----2--------0L-0-----------------------------------------
--------------------------------------------2-----2L-2-----2--------2L-2--------
--------------------------------------------------3L-3-----3L-3-----3L-3--------
--------------------------------------------------------x--4L-4--x--------x-----
--------------------------------------------------------x--------x--------x-----
--------------------------------------------------2L-2-----2L-2-----2L-2-----2L-


--------------------|
--------------------|
------3-------------|
---x--4--x--4-------|
---x--4>-x--4--x----|
2-----2-------------|


----------------------------------------------------------------------------|
--2--------3--3-------------------------------------------------------------|
--------------------------4L-4--x--4--------4--------4--------4-----4-------|
--------------------------4L-4--x--4--------4--------4--------4-----4-------|
--------------------------2>----------2--x--2L-2--x-----2--x--2>-x-----x----|
----------------------------------------------------------------------------|


-----------------------------------0L-0-----2-----------------------------------
--4-----------------2-----4--------0L-0-----4-----------------------------------
-----------4L-4-----------4-----------------------4L-4--x--4--------4--------4--
--------------------------------------------------4L-4--x--4--------4--------4--
--------------------------------------------------2>----------2--x--2L-2--x-----
--------------------------------------------------------------------------------


--------------------|
--------------------|
------4-----4-------|
------4-----4-------|
2--x--2>-x-----x----|
--------------------|


--5--------3--3-------------------------------------------------------------|
-----------------------0--0L-0-----0L-0-----0L-0-----0L-0-----0L-0----------|
--------------------------2L-2-----2L-2-----2L-2-----2L-2-----2L-2--2-------|
--------------------------------x--0-----x--------x--0-----x--------0--x----|
--------------------------------x--------x--------x--------x-----------x----|
--------------------------0-----------------0-----------------0-------------|


--5-----------------3-----3-----------------3-----------------------------------
-----------------------------------0L-0-----------0L-0-----0L-0-----0L-0-----0L-
--------------------------------------------------0L-0-----0L-0-----0L-0-----0L-
--------------------------------------------------0-----x--------x--0-----x-----
--------------------------------------------------------------------------------
--------------------------------------------------------------------------------


--------------------|
0-----0L-0----------|
0-----0L-0--0-------|
---x--0-----0--x----|
--------------------|
--------------------|


--2--------------------------------2L-2-----------------------------------------
--2-----------------2-----5-----------------5-----------------------------------
-----------4L-4-----------------------------------------------------------------
--------------------------------------------------2-----x--2L-2--x--2L-2--x--2L-
--------------------------------------------------4-----x--4L-4--x--4L-4--x--4L-
--------------------------------------------------2L-2-----2L-2-----2-----------


--------------------|-----2----------------------------------------------------|
--------------------|--2--2----------------------------------------------------|
--------------------|--3-------------------------------------------------------|
2--x--2--x--2--x----|--------4L-4--x--4-----x--4-----x--4-----x--4--x--4-------|
4--x--4--x--4--x----|--------4L-4--x--4L-4--x--4L-4--x--4L-4--x--4>-x--4--x----|
------2-----2-------|--------2L-2-----2--------2-----------------2-------------|


--2--------3----------------------------------------------------|
--3-------------------------------------------------------------|
--------------4L-4--x--4--------4--------4--------------4-------|
--------------4L-4--x--4--------4--------4--------------4-------|
--------------2>----------2--x--2L-2--x-----2--x--2>-x-----x----|
----------------------------------------------------------------|


--2-----------------3-----2--------0L-0-----------------------------------------
--------------------------------------------2-----2L-2-----2--------2L-2--------
--------------------------------------------------3L-3-----3L-3-----3L-3--------
--------------------------------------------------------x--4L-4--x--------x-----
--------------------------------------------------------x--------x--------x-----
--------------------------------------------------2L-2-----2L-2-----2L-2-----2L-


--------------------|
--------------------|
------3-------------|
---x--4--x--4-------|
---x--4>-x--4--x----|
2-----2-------------|


----------------------------------------------------------------------------|
--2--------3--3-------------------------------------------------------------|
--------------------------4L-4--x--4--------4--------4--------4-----4-------|
--------------------------4L-4--x--4--------4--------4--------4-----4-------|
--------------------------2>----------2--x--2L-2--x-----2--x--2>-x-----x----|
----------------------------------------------------------------------------|


-----------------------------------0L-0-----2-----------------------------------
--4-----------------2-----4--------2L-2-----4-----------------------------------
-----------4L-4-----------4-----------------------4L-4--x--4--------4--------4--
--------------------------------------------------4L-4--x--4--------4--------4--
--------------------------------------------------2>----------2--x--2L-2--x-----
--------------------------------------------------------------------------------


--------------------|
--------------------|
------4-----4-------|
------4-----4-------|
2--x--2>-x-----x----|
--------------------|


--5--------3--3-------------------------------------------------------------|
-----------------------0--0L-0-----0L-0-----0L-0-----0L-0-----0-------------|
--------------------------2L-2-----2L-2-----2L-2-----2L-2-----2-----2-------|
--------------------------------x--------x--------x--------x-----x-----x----|
--------------------------------x--------x--------x--------x-----x-----x----|
--------------------------0-----------------0-----------------0-------------|


--3-----------------2-----2--------0L-0-----------------------------------------
--------------------------------------------2-----------------------------------
--------------------------------------------------3L-3-----3L-3-----3L-3-----3L-
--------------------------------------------------4-----x--4-----x--4-----x--4--
--------------------------------------------------------------------------------
--------------------------------------------------2--------2--------2--------2--


--------------------|
--------------------|
3-----3-----3-------|
---x--4--x--4--x----|
--------------------|
------2-----2-------|


-----------------------------------0L-0-----2-----------------------------------
--3--------0L-0-----2-----3-----------------------------------------------------
--------------------------------------------------0L-0-----0L-0-----0L-0-----0L-
--------------------------------------------------0-----x--0-----x--0-----x--0--
--------------------------------------------------------------------------------
--------------------------------------------------3--------3--------3--------3--


--------------------|--0--2---------------------------------------------------||
--------------------|--0--2---------------------------------------------------||
0-----0-----0-------|--------------------------------------------------------o||
---x--0--x--0--x----|--------4L-4--x--4-----x--4-----x--4-----x--4--x--4-----o||
--------------------|--------4L-4--x--4L-4--x--4L-4--x--4L-4--x--4>-x--4--x---||
------3-----3-------|--------2L-2-----2--------2-----------------2------------||


-----------------------------------0L-0-----2-----------------------------------
--3--------0L-0-----2-----3-----------------------------------------------------
--------------------------------------------------0L-0-----0L-0-----0L-0-----0L-
--------------------------------------------------0-----x--0-----x--0-----x--0--
--------------------------------------------------------------------------------
--------------------------------------------------3--------3--------3--------3--


--------------------|--0-------------------------------------------------------||
--------------------|--0--2----------------------------------------------------||
0-----0-----0-------|-----3----------------------------------------------------||
---x--0--x--0--x----|--------4L-4--x--4-----x--4-----x--4-----x--4--x--4-------||
--------------------|--------4L-4--x--4L-4--x--4L-4--x--4L-4--x--4>-x--4--x----||
------3-----3-------|--------2L-2-----2--------2-----------------2-------------||


-2--0--------------2--0--------------2--0---------------------------------------
-------3--2--0-----------3--2--0-----------3--2---------------------------------
o-------------------------------------------------------------------------------
o------------------------------------------------4L-4--------------4------------
-------------------------------------------------2-----------2--x--2L-2--x-----2
--------------------------------------------------------------------------------


-------------------|
-------------------|
-------------------|
-----4-------------|
--x--2>-x-----x----|
-------------------|


--2--0--------------2--0--------------2--0--------------------------------------
--------3--2--0-----------3--2--0-----------3--2--------------------------------
--------------------------------------------------0L-0--------------0-----------
--------------------------------------------------------------------------------
--------------------------------------------------2>----------2--x--2L-2--x-----
--------------------------------------------------------------------------------


--------------------|
--------------------|
------0-------------|
--------------------|
2--x--2>-x-----x----|
--------------------|


--2--0--------------2--0--------------2--0--------------------------------------
--------3--2--0-----------3--2--0-----------3--2--------------------------------
--------------------------------------------------2L-2--------------2-----------
--------------------------------------------------------------------------------
--------------------------------------------------2>----------2--x--2L-2--x-----
--------------------------------------------------------------------------------


--------------------|
--------------------|
------2-------------|
--------------------|
2--x--2>-x-----x----|
--------------------|


--2--0--------------2--0--------------2--0--------------------------------------
--------3--2--0-----------3--2--0-----------3--2--------------------------------
--------------------------------------------------0L-0--------------0-----------
--------------------------------------------------------------------------------
--------------------------------------------------2>----------2--x--2L-2--x-----
--------------------------------------------------------------------------------


-------------------|||
-------------------|||
------0-----------o|||
------------------o|||
2--x--2>-x-----x---|||
-------------------|||


        
Comments

No comments yet