Gametabs
Home
Tabs
Random

Zzz

Average rating: 5.000

6 ratings

Composer:

Tabber:

Style:

Instrument:

Created: November 17, 2014 at 12:00 AM

                                    Zzz
                                
Nichijou
Sayaka Sasaki
Guitar arrangement by Basisti94 (Miro Laaksonen)
16.11.2014

I used that 'x' to indicate hitting your guitar with a thumb.


Capo 1
Tempo ~ 153 (the first bar is like ~70)

       TH     TH     TH                                  
       Q      Q      H           E  E  E  Q    E  E  E   
E||---------<>0---------------|--0--1--3--3----5--------|
B||--<>1-----------<>3--------|-------------------------|
G||---------------------------|--0----------------------|
D||---------------------------|-------------------------|
A||---------------------------|--3----------------------|
E||---------------------------|-----------1-------x-----|


  E  E  E  Q    E  E  E     E  E  E  Q    Q    E     E  E  E  Q    E  E  E   
-------------------------|--------0--0----1----0--|--0--1--0----------------|
--3--5--6--6----8--------|--1--3------------------|-----------3-------------|
-------------------------|--2---------------------|-------------------------|
-------------------------|-----------0------------|-------------------------|
-------------------------|--0---------------------|----------------0--2-----|
--3--------4-------x-----|------------------------|--3--------3----------3--|


  E  E  E  Q    E  E  E     E  E  E  Q    E  E  E     E  E  E  Q    E  E  E   
--0--1--3--3----5--------|-------------------------|--------0--1----0--------|
-------------------------|--3--5--6--6----8--------|--1--3-------------1--1--|
--0----------------------|--4----------------------|--2-------------------0--|
-------------------------|-------------------------|-----------0-------0-----|
--3-------------3--------|-------------------------|--0-------------0--------|
-----------1-------x-----|--3--------4-------x-----|-------------------------|


  E  E  E  E  E  E  E  E     E  E  E  E  E  E  E  E     E  E  E  Q.     E  E   
--------------------------|--------3-----3--8--------|------------------------|
--L--------------3--0-----|--L-----------------------|------------------------|
--L-----0-----0--------5--|-----5-----5-----------1--|--L--------3------------|
-----0-----0--------------|-----------------5-----2--|--L--------4------------|
-----------------------3--|--L-----------------3-----|------------------------|
--------------------------|-----------------------0--|-----0--0--2------2-----|


  E  E  E  Q    E  E  E     E  E  E  Q    E  E  E     E  E  E  Q    Q    E   
--0--1--3--3----5--------|-------------------------|--------0--0----1----0--|
-------------------------|--3--5--6--6----8--------|--1--3------------------|
--0----------------------|-------------------------|--2---------------------|
-------------------------|-------------------------|-----------0------------|
--3-------------3--------|-------------------------|--0---------------------|
-----------1-------x-----|--3--------4-------x-----|------------------------|


  E  E  E  Q    E  E  E     E  E  E  Q    E  E  E     E  E  E  Q    E  E  E   
--0--1--0----------------|--0--1--3--3----5--------|-------------------------|
-----------3-------------|-------------------------|--3--5--6--6----8--------|
-------------------------|-------------------------|-------------------------|
-------------------------|-------------------------|-------------------------|
----------------0--2-----|--3-------------3--------|-------------------------|
--3--------3----------3--|-----------1-------x-----|--3--------4-------x-----|


  E  E  E  Q    E  E  E     E  E  E  Q    E  E  E     E  E  E  Q    E  E  E   
--------0--1----0--------|-------------------------|--0--1--3--3----5--------|
--1--3-------------3--1--|--L-----0--1-------------|-------------------------|
-------------------------|-----0----------0--------|--------0----------------|
-----------0-------------|-------------------2-----|-------------------------|
--0----------------------|----------------------3--|--3-------------3--------|
-------------------------|--3----------------------|-----------1-------x-----|


  E  E  E  Q    E  E  E     E  E  E  Q    Q    E     E  E  E  Q    E  E  E   
-------------------------|--------0--0----1----0--|--0--1--0----------------|
--3--5--6--6----8--------|--1--3------------------|-----------3-------------|
-------------------------|----------------2-------|--------0--0-------------|
-------------------------|-----------0------------|-----------0----------0--|
-------------------------|--0---------------------|----------------0--2-----|
--3--------4-------x-----|------------------------|--3--------3-------------|


  E  E  E  Q    E  E  E     E  E  E  Q    E  E  E     E  E  E  Q    E  E  E   
--0--1--3--3----5--------|--7--5--7--8-------------|--0-----0--1----0--------|
-------------------------|-------------------------|-----3-------------1--1--|
--------0----------------|--4-------------------5--|--------0----------0-----|
-------------------------|-------------------7-----|--0-------------0--------|
--3-------------3--------|----------------7--------|-------------------------|
-----------1-------x-----|--4--------5-------------|-----------3-------------|


  Q    E  E  Q    E  E     E  E  E  E  E  E  E  E     E  E  E  E  E  E  E  E   
------------------------|-----------------------0--|--L--1-----0-----------0--|
--L---------------1--0--|--1-----0--1-----3--------|-----------------0--------|
------------------------|-----2--------------------|--------1-----------1-----|
--3----2--0-------------|--------------------2-----|--------------2-----------|
--3----------3----------|--0-----------0-----------|--------------------------|
------------------------|--------------------------|--4-----------------------|


  E  E  E  E  E  E  E  E     E  E  E  E  E  E  E  E     Q.     E  E  Q    E   
--7-----5--7-----8-----0--|--------------------------|-----------------------|
--------------------------|-----3-----1--------------|--1------------3----1--|
--------------------0-----|-----------------2--------|------------2----------|
-----0--------0-----------|--------0-----0-----0-----|--0------0----------0--|
--------------------------|-----------------------0--|-----------------------|
--3-----------------------|--2-----------------------|-----------------------|


  E  Q    E  E  Q    E     E  E  E  Q    Q    E     E  E  E  Q.     E  E   
----------------5----5--|--L--3-----3----2----3--|--L------------------0--|
--L-------1-------------|------------------------|------------------------|
-----2-------2----------|--------0------------0--|--L--------0------------|
--L--0----0----------0--|-----0----------0----0--|--L-----0---------------|
------------------------|------------------------|-----2------------------|
------------------------|--3--------3---------3--|--3---------------3-----|


  E  E  E  Q    E  E  E     E  E  E  Q    E  E  E     E  E  E  Q    E  E  E   
--L--1--3--3----------4--|--L--5--7--8----------8--|--L--7--5--3----------1--|
-------------------------|-------------------------|----------------3--------|
-----0-------------2-----|-------------------5-----|-------------------0-----|
-------------------------|-------------------------|--0-------------0--------|
--3-------------3--------|----------------7--------|-------------------------|
-----------1-------------|--4--------5-------------|-----------3-------------|


  E  E  E  Q    E  E  E     E  E  E  Q    E  E  E     E  E  E  Q    E  E  E   
--L--0-----0-------------|-----------0----7-----8--|-----7-----5-------------|
--------3-------------3--|--L--5--6----------------|----------------------3--|
----------------0--3-----|-------------------------|-------------------2-----|
-------------------------|-------------------------|----------------0--------|
--3--------3-------------|--2-----0----------------|-------------------------|
-------------------------|-----------4-------7-----|-----3-----2-------------|


  Q    E  E  E  E  E  E     E  Q    E  E  Q    E     E  E  E  E  E  E  E  E   
--5-------------------3--|--L---------------------|--------------------------|
----------------3--------|-----1----1-----0----1--|--L--------------1-----1--|
-------2-----2--------0--|-----0----------0-------|--------0-----0-----0-----|
--0-------0--------0-----|-------------0----------|-----------------------3--|
-------------------------|---------------------3--|--L--3-----3-----------3--|
----------------------3--|--L-------3-------------|--------------------------|


  E  E  E  E  E  E  E  E     E  E  E  E  E  E  Q       E  E  E  E  E  E  E  E   
--------------------------|-------------------------|--------------------------|
--L--------------1-----1--|--L--------------1-------|-----------1--------------|
-----------------------0--|--------0-----0----------|--------0-----1-----------|
--L-----3-----3-----3-----|-------------------------|-----2-----------1-----1--|
--L--3-----3-----------3--|--L--3-----3--------3----|--3-----------------3-----|
--------------------------|-------------------------|--------------4-----------|


  E  E  E  Q    E  E  E     E  E  E  Q    E  E  E     E  E  E  Q    Q    E   
--------4--4----6--------|-------------------------|------------------------|
--6--7-------------------|--4--6--7--7----9--------|--------6--6----7----6--|
-------------------------|-------------------------|--6--8------------------|
-------------------------|-------------------------|------------------------|
--4----------------------|-------------------------|-----------6------------|
-----------2-------x-----|--4--------5-------x-----|--6---------------------|


  E  E  E  Q    E  E  E     E  E  E  Q    E  E  E     E   E  E  Q    E  E  E   
-------------------------|--------4--4----6--------|--8------8--9-------------|
-----7--6--4-------------|--6--7-------------------|-----11-------------------|
----------------------5--|-------------------------|-----------------------6--|
-------------------6-----|-------------------------|--------------------8-----|
----------------6--------|--4----------------------|--8--------------8--------|
--4--------4-------------|-----------2-------x-----|------------6-------------|


  E  E  E  Q    E  E  E     Q    E  E  Q.     E     E  E  E  Q    E  E  E   
-------------------------|-----------------------|--------4--4----6--------|
--7--6--7--7----6--------|-----------------------|--6--7-------------------|
-------------------6--6--|--L--------------------|-------------------------|
-------------------------|--4--------------------|-------------------------|
--6----------------------|--4----8--6--4---------|--4----------------------|
-----------4-------------|-----------------------|-----------2-------x-----|


  E   E  E  H        E     W                   E  E  E  Q    E  E  E   
--8------8--9--------L--|--L----------------|-------------------------|
-----11-----------------|-------------------|--7--6--7--7----6--------|
------------------------|-------------------|-------------------6--6--|
------------------------|-------------------|-------------------------|
--8---------------------|-------------------|-------------------------|
------------6--------L--|--L----------------|-------------------------|


  ^                              
  W                              
-------------------|-----|-----||
-------------------|-----|-----||
--L----------------|-----|-----||
-------------------|-----|-----||
-------------------|-----|-----||
-------------------|-----|-----||




Duration Legend
---------------
W - whole
H - half
Q - quarter
E - 8th
S - 16th
T - 32nd
X - 64th
. - note dotted
|-n-|  - n-tuplets


Tablature Legend
----------------
L - tied note
x - dead note
g - grace note
(n) - ghost note
> - accentuded note
NH - natural harmonic
AH - artificial harmonic
TH - tapped harmonic
SH - semi harmonic
PH - pitch harmonic
h - hammer on
p - pull off
b - bend
S - shift slide
s - legato slide
/ -  slide into from below or out of upwards
\ -  slide into from above or out of downwards
~ - vibrato
W - wide vibrato
tr - trill
TP - tremolo picking
T - tapping
S - slap
P - pop
< - fade in
^ - brush up
v - brush down

        
Comments

No comments yet