Gametabs
Home
Tabs
Random

Tavern 3

Average rating: 4.500

2 ratings

Composer:

Tabber:

Style:

Instrument:

Created: July 24, 2010 at 12:00 AM

                                               Tavern 3 
                              Neverwinter Nights  
                                 Jeremy Soule




     S  S   S  S  S   S   S  S   S  S  S   S  S  S   S  S  
E||----(3)-(3)---(3)-(3)----(3)-(3)---(3)-(3)---(3)-(3)---|
B||--4---------3---------/6-------------------3-----------|
G||-------------------------------------------------------|
D||---------------------------------6-------------------6-|
A||-------------------------------------------------------|
E||-------------------------------------------------------|


   S   S  S  S   S  S  S   S  S  S   S  S  S   S  S  S   
--(3)-(3)---(3)-(3)---(3)-(3)---(3)-(3)---(3)-(3)---(3)-|
----------3---------------------------------------4-----|
------------------------------5-------------------------|
--------------------6-------------------6---------------|
--------------------------------------------------------|
--------------------------------------------------------|


   S  S  S   S  H.            
--(3)---(3)-(3)--------------|
----------------6------------|
-----------------------------|
------6----------------------|
-----------------------------|
-----------------------------|


  S  S   S  S  S   S  S  S   S  S  S   S  S  S   S  S  
----(3)-(3)---(3)-(3)---(3)-(3)---(3)-(3)---(3)-(3)---|
--4---------3---------6-------------------3-----------|
------------------------------------------------------|
--------------------------------6-------------------6-|
------------------------------------------------------|
------------------------------------------------------|


   S   S  S  S   S  S  S   S  S  S   S  S  S   S  S  S   
--(3)-(3)---(3)-(3)---(3)-(3)---(3)-(3)---(3)-(3)---(3)-|
----------3---------------------------------------------|
------------------------------5-------------------4-----|
--------------------6-------------------6---------------|
--------------------------------------------------------|
--------------------------------------------------------|


   S  S  S   S  S  S   S  S  S   S  E.  E.   
--(3)---(3)-(3)---(3)-(3)---(3)-(3)---------|
--------------------------3---------4-------|
----------------5-----------------------5---|
------6-------------------------------------|
--------------------------------------------|
--------------------------------------------|


              v   v     v   v     v   
  H        S  S   S  S  S   S  S  S   
-------------(3)-(3)---(3)-(3)---(3)-|
-------------(1)-(1)---(1)-(1)---(1)-|
--L--------0---------1---------0-----|
-------------------------------------|
-------------------------------------|
-------------------------------------|


   v     v   v     v   v     v   v     v   v     v   v   
   S  S  S   S  S  S   S  S  S   S  S  S   S  S  S   S   
--(3)---(3)-(3)---(3)-(3)---(3)-(3)---(3)-(3)---(3)-(3)-|
--(1)---(1)-(1)---(1)-(1)---(1)-(1)---(1)-(1)---(1)-(1)-|
------3---------0---------1---------0---------3---------|
--------------------------------------------------------|
--------------------------------------------------------|
--------------------------------------------------------|


     v   v     v   v     v   v     v   v         
  S  S   S  S  S   S  S  S   S  S  S   S  E.  S  
----(3)-(3)---(3)-(3)---(3)-(3)---(3)-(3)-------|
----(1)-(1)---(1)-(1)---(1)-(1)---(1)-(1)-------|
------------0-------------------0---------------|
--3-------------------3-------------------0-----|
----------------------------------------------2-|
------------------------------------------------|


  E.  Q.     S  S   S  S  S   S  S  
---------------(3)-(3)---(3)-(3)---|
-------------4---------3---------6-|
-----------------------------------|
-----------------------------------|
--L---L----------------------------|
-----------------------------------|


   S   S  S  S   S  S  S   S  S  S   S  S  S   S  S  S   
--(3)-(3)---(3)-(3)---(3)-(3)---(3)-(3)---(3)-(3)---(3)-|
--------------------3-------------------3---------------|
--------------------------------------------------------|
----------6-------------------6-------------------6-----|
--------------------------------------------------------|
--------------------------------------------------------|


   S  S  S   S  S  S   S  S  S   S  S  S   S  S  S   S   
--(3)---(3)-(3)---(3)-(3)---(3)-(3)---(3)-(3)---(3)-(3)-|
--------------------------------------------------------|
------5-------------------4-------------------5---------|
----------------6-------------------6-------------------|
--------------------------------------------------------|
--------------------------------------------------------|


                                      |-3-|                      
  S  S   S  E.  H        E      Q     E   Q     E.   S  S. S  S. 
----(3)-(3)-----------------|--15----13--11----10---11----11-13-|
--3---------4---------------|--------------------------15-------|
----------------5--------L--|--15--------------15---------------|
----------------------------|-----------------------------------|
----------------------------|-----------------------------------|
----------------------------|-----------------------------------|


                                          |-3-|                   
    E   S  S. S  S. Q.      E.      Q     E   Q     E.   E.   E   
--/13-----11----11-13-----------|--15----13--11----10---11-------|
-------15----15-----------------|----------------------------11--|
---15--------------15------15---|--15--------------15------------|
--------------------------------|--------------------------------|
--------------------------------|--------------------------------|
--------------------------------|--------------------------------|


   E.   E.   E.   Q    E.      S  S. E.   S  S. E.   S. S  S.S  
--10---11------------------|---8-10-11----8-10-11---13-11-10-8-|
------------12---13----L---|---------8----------8----9--8------|
--15-----------------------|---------8----------8---------10---|
---------------------------|--10---------10--------------------|
---------------------------|-----------------------------------|
---------------------------|-----------------------------------|


   S. S  E   E.   Q    S.  S  S S    T  S  S  E   S  S.S S Q    E.    
--10-11-13--10---15----8--10-11-8-|--L-10-11-13--11-10-8-7-8----L---||
----------------------------------|---------------------------------||
----------------------------------|---------------------------------||
-----------------17---------------|---------------------------------||
----------------------------------|---------------------------------||
----------------------------------|---------------------------------||




Duration Legend
---------------
W - whole
H - half
Q - quarter
E - 8th
S - 16th
T - 32nd
X - 64th
. - note dotted
|-n-|  - n-tuplets


Tablature Legend
----------------
L - tied note
x - dead note
g - grace note
(n) - ghost note
> - accentuded note
NH - natural harmonic
AH - artificial harmonic
TH - tapped harmonic
SH - semi harmonic
PH - pitch harmonic
h - hammer on
p - pull off
b - bend
br - bendRelease
pb - preBend
pbr - preBendRelease
brb - bendReleaseBend
\n/ - tremolo bar dip
\n - tremolo bar dive
-/n - tremolo bar Release up
/n\ - tremolo bar inverted dip
/n - tremolo bar return
-\n - tremolo bar Release down
S - shift slide
s - legato slide
/ -  slide into from below or out of upwards
\ -  slide into from above or out of downwards
~ - vibrato
W - wide vibrato
tr - trill
TP - tremolo picking
T - tapping
S - slap
P - pop
< - fade in
^ - brush up
v - brush down

        
Comments

No comments yet