Gametabs
Home
Tabs
Random

Natsu Yuuzora

Average rating: 4.667

3 ratings

Composer:

Tabber:

Style:

Instrument:

Created: January 06, 2014 at 12:00 AM

            Natsu yuuzora
Natsume yuujinchou
composed by Atari Kousuke


e|-------0--|-11--9-7-7----|-------0-----------9--7-|-0-----------0-----2--4-|
B|----------|------------7-|-------0-----9----------|-------2/4---------0----|
G|-------6--|-----9--------|-------------9-----9----|-------2----------------|
D|----2-----|---------7----|----6-----6-----4-------|----2--------6--2-------|
A|----------|--0-----------|-4----------------------|-------0----------------|
E|-4--------|--------------|-------------7----------|-5-----------------4----|



|------4---0---|--------0---9--------4--2-----2/4-4-|-------0--4-----7--0---|-------4--2--0--0--2--4-----2-0-2-|
|-2--------1-^-|-----0------------2-----------------|-------0-----------5---|----5-----------------0-----2-----|
|-2----------|-|------------------2--------1--------|-----------------------|----6-----------------------2-----|
|------------|-|--2------------2--------------4-----|----6--------2---------|----------------2--------4--------|
|-2--------3---|-----2------0-----------------------|-4--------0-----6------|-7-----------4--------------------|
|--------------|------------------------0-----------|-----------------------|----------2-----------4-----------|



|-4-----7--9-----0--12--12--11--11--12-12-----0--4--0--------4--5--4--2--0-|
|--------------------------------0------------0-----2-----------5----------|
|-------------9--6----------------------------------2-----2-----5----------|
|----2---------------------------------------------------------------------|
|----------0-----0-------0------11-----11--------------4--------3----------|
|-------0----------------------------------0--4-----2-----2----------------|



|-0--2--4---5--11--------4-----0--4--12--11--7--2--------4--7-----14------12-14--12--2--4--4--|
|---------0-5---9--7-----------0-----10------7-----0-----0------------14----------------------|
|------------------------------------11----------------------------------------------2--------|
|---------------------2-----6-------------------------2---------------------------------------|
|------------------------4---------------------------------------------------12---------------|
|-0----------------0-------------------------------4--------0--7--14-----------------2-----4--|



|-5—7---------------4--5--7--12--14-----16--7-----11/12-|-12--14------9-----9--11--11-----12-----|
|---0--7---------------0----------0----------------0----|-------------9---------0---0-----12--12-|
|----------6-----6--------------------------------------|----------9--9-----9--------------9-----|
|-------------4----------------------9------------------|---------11-----------------------------|
|----------0-----0--------------------------------11----|--0-------0------------9--11--9---------|
|-2-------------------------------0---------4--0--------|----------------0-----------------------|



|-------7--5-----5--9-|-------7--12--14--16------16--14-12-12-----12--17--16--14--12--12-----11--9--7----|
|----7--------7-------|-0-----------------0-------0----------------0-----------------------------------5-|
|-9-------------------|------------------------------------11-----------------------------9---8----------|
|----------4----------|----7--------------------------------------------------11--------------------4----|
|-9-----------7--0----|----------12----------14----------------9------16---------------------------------|
|---------------------|-7-----------------0------14---0-------------------------------12-----------------|



|-14--16--19--12--12--14--|---------0-|-11--9-7-7--------------|-----2-----9--7--0-----0---12--14--16--9------4------0---|
|--0----------------------|-----------|------------7-----7-----|-------------------------4-------------------------------|
|-------------------------|---------6-|---------------9--------|-----------------------6---------------------------------|
|-------------------------|-----2-----|---------7--------------|--------2-----------2------------------------------------|
|------------------0------|-----------|--0---------------------|-----2-----------0---------------------0-----------------|
|---------17--0-------14--|--4--------|---------------------4--|-----------------------------------------------------0---|


I kinda think I messed up somewhere, but at least I tried :3
        
Comments

@thedstring (January 18, 2014 at 4:09 PM)

A very pretty song =)

I would just change some of the fingerings around, for example here's the first measure:

e|-------0--|-11--9-7-7----|-------0-----4-----9--7-|-0-----------0-----2--4-|
B|----------|------------7-|-------0-----5----------|-------2/4---------0----|
G|-------6--|-----9--------|-------------------9----|-------2----------------|
D|----2-----|---------7----|----6-----6-----4-------|----2--------6--2-------|
A|----------|--0-----------|-4-----------2----------|-------0----------------|
E|-4--------|--------------|------------------------|-5-----------------4----|

and here's how I'd play it:

e|-------0--|-11--9-7-7----|-------0-----------9--7-|-0-----------0--------4-|
B|----------|------------7-|-------0-----<span style="color:red;">9</span>----------|-------2/4---------<span style="color:red;">7</span>----|
G|-------6--|-----9--------|-------------<span style="color:red;">9</span>-----9----|-------2-----------<span style="color:red;">4</span>----|
D|----------|---------7----|----6-----6-------------|----2--------6----------|
A|----<span style="color:red;">7</span>-----|--0-----------|-4--------------<span style="color:red;">9</span>-------|-<span style="color:red;">0</span>-----0--------<span style="color:red;">7</span>-------|
E|-4--------|--------------|-------------<span style="color:red;">7</span>----------|-------------------4----|

It's still rather difficult to play, but it can be made a little easier with some finger rearrangement.

Keep it comin! I like this song a lot!


@Gabedawg (April 05, 2021 at 10:39 PM)

tbh, i couldnt hear any of the song in this tab...... except for the intro. but it did sound magnificently beautiful and i love how its in E major since thats the key i like to sing this song in, :)