Gametabs
Home
Tabs
Random

The Raising Fighting Spirit

Average rating: 5.000

7 ratings

Composer:

Tabber:

Style:

Instrument:

Created: July 19, 2010 at 12:00 AM

                                      The Raising Fighting Spirit   
                                    Naruto                       
                                Toshiro Masuda




      S S S S S S S S S S S S    S S S S S S S S S S S S  
E||---0-----------0---2---3---|--2-----------------------|
B||-------0-----0-------------|--------------3-----------|
G||*----1-----1-----1---1---1-|------2-----2-----2-----2-|
D||*--2-----2-----------------|----4-----4-----4-----4---|
A||---------------------------|--5-----5-----5-----5-----|
E||---------------------------|--------------------------|


                             ^                        
  S S S S S S S S S S S S    S S S S S S S S S S S S  
--0-----------0---2---3---|--5-----------------------|
------0-----0-------------|--------------------------|
----1-----1-----1---1---1-|------7-----7-----7-----7-|
--2-----2-----------------|----7-----7-----7-----7---|
--------------------------|--5-----5-----5-----5-----|
--------------------------|--------------------------|


  S S S S S S S S S S S S    Q    S  S E  E  E     S S S S S S S  S  S S  S S  
--------------------------|---------------------|-----------------------------|
--1-----------1---3---1---|--0------------------|--0--------------------------|
------0-----0-------------|-------2p-0----0--2--|------4-----4-4p-2p-0-2p-0---|
----2-----2-----2---2---2-|--0---------4--------|----2-----2----------------4-|
--3-----3-----------------|------------5--------|-----------------------------|
--------------------------|---------------------|--0-----0--------------------|


  S S Q    S S Q         S S S S S S S S S S S S    Q    S  S E.  E.   
---------------------||----------------------0---|--------------------|
--1---1----0---0-----||--1-----------1---3-------|--3----1p-0-----3---|
--2---2----1---1----*||------0-----0-------------|--2---------2-------|
--3---3----2---2----*||----2-----2-----2---2---2-|--0---------4-------|
---------------------||--3-----3-----------------|------------5-------|
---------------------||--------------------------|--------------------|


  S S S S S S S  S  S S  S S    S S Q    S S Q       S S S S S S S S S S S S  
-----------------------------|--------------------|--------------------------|
--0--------------------------|--1---1----0---0----|----0---0---0---0---0---0-|
------4-----4-4p-2p-0-2p-0---|--2---2----1---1----|------2-----------2-------|
----2-----2----------------4-|--3---3----2---2----|--2-----------2-----------|
-----------------------------|--------------------|--3-------3---3-------3---|
--0-----0--------------------|--------------------|--------------------------|


  S S S S S S E  S S S S    E  S S S S S S S S S S    S S S S S S S S S S S S  
-------------------------|-------------------------|--------------------------|
----0---0---0-0----------|-----------------------0-|--3-------0---3---5---5---|
------2----------2-2---0-|--0----0-----0-0---2-----|------2-------------------|
--2----------------------|-----2-----2-----2-------|----0---0---0-------------|
--3-------3---3------3---|--2------2---2-------2---|----------------5-------5-|
-------------------------|-------------------------|--0-----0-----3-----3-----|


  S S S S S S S S S S S S    S S S S S S S  S S S S S  
--0-0---0-----0-3---0-5---|--0-5---7-7-7-7-10---5---5-|
----------3---------------|---------------------------|
------2-----2-----2-----2-|---------------------------|
--------------------------|------9------------9-------|
--0-------0---0-------0---|---------------------------|
--------------------------|--7-------7---7--------7---|


   S  S  S  S  S  S  S  S  S  S  S  S     S S  S S  S S  Q.      
--10-10-10-10----10----10-10-10----10-|--10---10---10---10------|
--------------12----12----------12----|--12---12---12---12------|
--------------------------------------|-------------------------|
--------------------------------------|-------------------------|
--------------------------------------|-------------------------|
---8-----------8-----8-----------8----|---8----8----8----8------|


    ^                           ^                        
    S S S S S  S S S S S S S    S S S S S S S S S S S S  
|---3-------2h-3-5-----------|--------------------------|
|---0------------------3-----|--1-------0---0-----0-----|
|*--0---0------------2-----2-|------0-----2-----0-----0-|
|*----2------------2-----2---|----2-----------2-----2---|
|----------------------------|--------------------------|
|---0-----0------2-----2-----|--3-----3-----3-----3-----|


                              ^         ^              
  S S S S S  S S S S S S S    Q    S  S S S S S S S    
--0------------------------|-------------------------||
----------3p-1-0-----------|-------------------------||
------0--------------0-----|--2----0h-2-4-----------*||
----2--------------0-----0-|--4-------------4-----4-*||
--3-----3--------2-----2---|--5-----------6-----6----||
---------------3-----------|------------7-----7------||


  S S S S S S S S S S E     S S S S S S Q     E    
--0----------------------|--0---0---0---0---------|
------3---1---0----------|--0---0---0---0---------|
----0---0---0-----2---0--|--0---0---0---0---------|
----------------5---5----|------------------------|
--3-----------5----------|------------------------|
-------------------------|--0---0---0---0----12\--|


    S S S S S S S  S  S S  S S    S S S S S S E.  E.   
|------------------------------|----------------------|
|------------------------------|--------------3---2---|
|*------4-----4-4p-2p-0-2p-0---|------4-----4-2---2---|
|*----2-----2----------------4-|----2-----2---0---0---|
|------------------------------|----------------------|
|---0-----0--------------------|--0-----0-------------|


  S S S S S S S  S  S S  S S    S S Q    S S Q         S S S S S S S S S S E   
-----------------------------|---------------------||--0---0---0---0---0---0--|
-----------------------------|--1---1----0---0-----||--0---0---0---0---0---0--|
------4-----4-4p-2p-0-2p-0---|--2---2----1---1----*||--0---0---0---0---0---0--|
----2-----2----------------4-|--3---3----2---2----*||-------------------------|
-----------------------------|---------------------||-------------------------|
--0-----0--------------------|---------------------||--0---0---0---0---0---0--|


  ^              
  H.             
--0------------||
--0------------||
--0------------||
---------------||
---------------||
--0------------||




Duration Legend
---------------
W - whole
H - half
Q - quarter
E - 8th
S - 16th
T - 32nd
X - 64th
. - note dotted
|-n-|  - n-tuplets


Tablature Legend
----------------
L - tied note
x - dead note
g - grace note
(n) - ghost note
> - accentuded note
NH - natural harmonic
AH - artificial harmonic
TH - tapped harmonic
SH - semi harmonic
PH - pitch harmonic
h - hammer on
p - pull off
b - bend
br - bendRelease
pb - preBend
pbr - preBendRelease
brb - bendReleaseBend
\n/ - tremolo bar dip
\n - tremolo bar dive
-/n - tremolo bar Release up
/n\ - tremolo bar inverted dip
/n - tremolo bar return
-\n - tremolo bar Release down
S - shift slide
s - legato slide
/ -  slide into from below or out of upwards
\ -  slide into from above or out of downwards
~ - vibrato
W - wide vibrato
tr - trill
TP - tremolo picking
T - tapping
S - slap
P - pop
< - fade in
^ - brush up
v - brush down

        
Comments

@Brave Toaster (July 20, 2010 at 12:48 AM)

Wow, this was unexpected. This is a song that screams ELECTRICAL GUITAR, yet it turned out amazingly great in a classical arrangement. Sir Bhael, congratulations for your accomplishment. The fast pace suited it pretty well. I'm going to try it out right away!

Thank you very much for sharing a piece of your hard work with us!


@nathan777 (July 20, 2010 at 2:57 AM)

I cant believe somebody actually made a fingerstyle arrangement of this omg ur amazing


@bluefox90 (July 20, 2010 at 6:54 AM)

i would have never expected this song for classical arrangement ..im naming u hokage


@Bessem (June 18, 2013 at 8:22 PM)

S S S S S S S S S S S S S S S S S S S S S S S S E||---0-----------0---2---3---|--2-----------------------| B||-------0-----0-------------|--------------3-----------| G||----0-----0-----0---0---0-|------2-----2-----2-----2-| D||--2-----2-----------------|----4-----4-----4-----4---| A||---------------------------|--5-----5-----5-----5-----| E||---------------------------|--------------------------|

the song is on E minor correct plz


@BigHeadClan (September 02, 2014 at 3:20 AM)

Ugh this is a hard as shit to play... well for me. Awesome to see an finger style though. lol