Gametabs
Home
Tabs
Random

Sexiness

Average rating: 5.000

1 ratings

Composer:

Tabber:

Style:

Instrument:

Created: December 27, 2010 at 12:00 AM

            Sexiness
Naruto
Anime
Tabbed by John Adams
Composed by Toshiro Masuda
12/26/2010


e|------------------------------------------------------|
B|------------------------------------------------------|
G|--12---11--12-11--10--9-8-----12---11--12-11--10--9-8-|
D|------------------------------------------------------|
A|------------------------------------------------------|
E|------------------------------------------------------|

|----------------------------------------------------------|
|----------------------------------------------------------|
|--15---14--15-14--13--12-11-----15---14--15-14--13--12-11-|
|----------------------------------------------------------|
|----------------------------------------------------------|
|----------------------------------------------------------|

|------------------------------------------------------|
|------------------------------------------------------|
|--12---11--12-11--10--9-8-----12---11--12-11--10--9-8-|
|------------------------------------------------------|
|------------------------------------------------------|
|------------------------------------------------------|

|----------------------------------------------|
|----------------------------------------------|
|--7-7-7-8---9-9-9-10----11-9-11----9-11-12--0-|
|--------------------------------12------------|
|----------------------------------------------|
|----------------------------------------------|
        
Comments

No comments yet