Gametabs
Home
Tabs
Random

Sand Ripples in the Wind

Average rating: 5.000

5 ratings

Composer:

Tabber:

Style:

Instrument:

Created: November 19, 2013 at 12:00 AM

            Title: Sand Ripples In The Wind
SubTitle: Naruto Ultimate Ninja Storm
Artist: Takanashi Yasuharu
Tabber: Mitch Jackson
Tempo = 90
T/S = 3/4


The first playthrough of the chorus follows the lead from the original song and the second
chorus playthrough follows the background rhythm

Left hand fingering is included in GP file as a guide
Tuning = D standard (Whole guitar 2 semi-tones down)

---------
LEGEND 
---------
L = Hold Previous Note
^ = Upward Arpeggio
(?) = Ghost Note
<?> = Natural Harmonic / Pinch Harmonic (N.H - P.H)
rall = Rallentando (Gradually Slow Down Speed)
mp = mezzo-piano (Moderately Quiet)
mf = mezzo-forte (Moderately Loud)

          
  mp
     E  E  E  E  E  E       E  E  E  E  Q          E  E  E  E  E  E       E  E  E  E  E  E    
D |----------------------|--------------3-------|--------0--1-----0----|--7--------5----------|
A |-----------1-----3----|-----------1----------|--------------3-------|-----3--5-----3--5----|
F |--------4-----0-------|--------4-------------|----------------------|--------4-------------|
C |-----2----------------|-----3----------------|-----2----------------|-----3----------------|
G |--0-------------------|--0-------------------|--0-------------------|--0-------------------|
D |----------------------|----------------------|----------------------|----------------------|
      

     E  E  E  E  E  E       E  E  E  E  Q          E  E  E  E  E  E       E  E  H             
  |--------8-----0--7----|--5--------3--0-------|--0--------0----------|--0-------------------|
  |----------------------|-----0--3-------------|--------3--------3----|--------0-------------|
  |-----------7----------|----------------------|-----2--------2-------|----------------------|
  |----------------------|-----2----------------|----------------------|-----2----------------|
  |-----7----------------|----------------------|-----3----------------|----------------------|
  |--5-------------------|--3-------------------|--1-------------------|--3-------------------|

                                     p.h
     E  E  E  E  E  E       E  E  E  E  Q          E  E  E  E  E  E       E  E  Q     Q       
  |-----0--------0-------|--0-----0-----0-------|--------0-----0-------|--0-------------------|
  |--------1--3-----3----|-----3--0-<0>---------|-----3-----------3----|--------0-------------|
  |--------2-------------|----------------------|-----------2----------|--------------0-------|
  |-----2----------------|-----2----------------|----------------------|-----0----------------|
  |--0-------------------|----------------------|-----3----------------|----------------------|
  |----------------------|--3-------------------|--1-------------------|--3-------------------|
                                                                     

     E  E  E  E  E  E       E  E  H                E  E  E  E  E  E       E  E  H             
  |--1--------0--1-------|----------------------|--5-----------0-------|--0-------------------|
  |-----------------3----|--0-------------------|-----------3-----3----|--------2-------------|
  |--2-----2-------------|--------0-------------|--2-----2-------------|----------------------|
  |----------------------|-----0----------------|--2--2----------------|-----2----------------|
  |-----3----------------|----------------------|--0-------------------|--0-------------------|
  |--1-------------------|--3-------------------|----------------------|----------------------|

  mf
     E  E  Q     Q          E  E  Q     E  E       E  E  Q     Q          E  E  H             
  |----------------------|----------------------|--0-----------3-------|--0-------------------|
  |----------------------|--0-----0-----1--3----|--------1-------------|--------0-------------|
  |--------2-----2-------|----------------------|--------2-------------|----------------------|
  |--2-------------------|-----0----------------|-----2----------------|-----0----------------|
  |-----3----------------|----------------------|--0-------------------|----------------------|
  |--1-------------------|--3-------------------|----------------------|--3-------------------|
              

     E  E  Q     E  E       E  E  Q     Q          E  E  Q     Q          E  E  H             
  |--------0--------0----|----------------------|----------------------|----------------------|
  |--------------3-------|--------0-------------|--1--0----------------|--------0-------------|
  |--------2-------------|--2-----------0-------|--------2-----0-------|--2-------------------|
  |----------------------|-----0----------------|-----2----------------|-----0----------------|
  |-----3----------------|----------------------|--0-------------------|----------------------|
  |--1-------------------|--3-------------------|----------------------|--3-------------------|
                                                                     

     E  E  Q     Q          E  E  E  E  E  E       E  E  E  E  E  E       E  E  H             
  |--------------0-------|--0-----------0--3----|----------------------|--0-------------------|
  |----------------------|--------0--3----------|--0-----1--0--1--3----|--------0-------------|
  |--------2-------------|----------------------|--------2-------------|----------------------|
  |----------------------|-----0----------------|-----2----------------|-----0----------------|
  |-----3----------------|----------------------|--0-------------------|----------------------|
  |--1-------------------|--3-------------------|----------------------|--3-------------------|

                                                                          ^
     E  E  Q     E  E       E  E  E  E  E  E       E  E  E  E  E  E       E  E  H             
  |--------0--------0----|----------------------|----------------------|--0-------------------|
  |--------------3-------|--------------1--0----|--0-----------0--3----|--0-------------------|
  |--------2-------------|--2--------2----------|--------1--2----------|--------1-------------|
  |----------------------|-----0--3-------------|----------------------|----------------------|
  |-----3----------------|--0-------------------|-----2----------------|-----2----------------|
  |--1-------------------|----------------------|--0-------------------|--0-------------------|
              
  mp
     E  E  E  E  E  E       E  E  E  E  Q          E  E  E  E  E  E       E  E  E  E  E  E    
  |----------------------|--------------3-------|--------0--1-----0----|--7--------5----------|
  |-----------1-----3----|-----------1----------|--------------3-------|-----3--5-----3--5----|
  |--------4-----0-------|--------4-------------|----------------------|--------4-------------|
  |-----2----------------|-----3----------------|-----2----------------|-----3----------------|
  |--0-------------------|--0-------------------|--0-------------------|--0-------------------|
  |----------------------|----------------------|----------------------|----------------------|
                                                                     

     E  E  E  E  E  E       E  E  E  E  Q          E  E  E  E  E  E       E  E  H              
  |--------8-----0--7----|--5--------3--0-------|--0--------0----------|--0-------------------|
  |----------------------|-----0--3-------------|--------3--------3----|--------0-------------|
  |-----------7----------|----------------------|-----2--------2-------|----------------------|
  |----------------------|-----2----------------|----------------------|-----2----------------|
  |-----7----------------|----------------------|-----3----------------|----------------------|
  |--5-------------------|--3-------------------|--1-------------------|--3-------------------|
                                               
                                     p.h
     E  E  E  E  E  E       E  E  E  E  Q          E  E  E  E  E  E       E  E  Q     Q       
  |-----0--------0-------|--0-----0-----0-------|--------0-----0-------|--0-------------------|
  |--------1--3-----3----|-----3--0-<0>---------|-----3-----------3----|--------0-------------|
  |--------2-------------|----------------------|-----------2----------|--------------0-------|
  |-----2----------------|-----2----------------|----------------------|-----0----------------|
  |--0-------------------|----------------------|-----3----------------|----------------------|
  |----------------------|--3-------------------|--1-------------------|--3-------------------|
              

     E  E  E  E  E  E       E  E  H                E  E  E  E  E  E       E  E  H              
  |--1--------0--1-------|----------------------|--5-----------0-------|--0-------------------|
  |-----------------3----|--0-------------------|-----------3-----3----|--------2-------------|
  |--2-----2-------------|--------0-------------|--2-----2-------------|----------------------|
  |----------------------|-----0----------------|--2--2----------------|-----2----------------|
  |-----3----------------|----------------------|--0-------------------|--0-------------------|
  |--1-------------------|--3-------------------|----------------------|----------------------|
                                                                    
  mf
     E  E  E  E  Q          E  E  E  E  E  E       E  E  E  E  E  E       E  E  H             
  |-----0-----0----------|----------------------|-----0--------0-------|--0--7--0-------------|
  |--------3-------------|-----0--------0-------|--------1--3-----3----|--------0-------------|
  |--------2-----2-------|-----------0-----2----|--2-----2-------------|----------------------|
  |----------------------|--2-----2-------------|-----2----------------|-----0----------------|
  |-----3----------------|----------------------|--0-------------------|----------------------|
  |--1-------------------|--3-------------------|----------------------|--3-------------------|
                    

     E  E  E  E  E  E       E  E  E  E  E  E       E  E  E  E  E  E       E  E  E  Q.         
  |-----5-----0--3-------|--0-------------------|----------------------|--------0-------------|
  |--------3--------3----|-----0--3-----1--0----|--------0--1-----1----|--3----(0)------------|
  |----------------------|-----------0----------|-----2--------4-------|-----2-----2----------|
  |----------------------|-----0----------------|-----2----------------|-----0----------------|
  |-----3----------------|----------------------|--0-------------------|----------------------|
  |--1-------------------|--3-------------------|----------------------|--3-------------------|
 

     E  E  E  E  E  E       E  E  E  E  E  E       E  E  E  E  E  E       E  E  Q     Q        
  |-----5-----0-----0----|-----0-----0----------|-----------------0----|--------------0-------|
  |--------3----(0)------|--1--------------0----|-----1-----1--3-------|--0----(0)------------|
  |--------------0-------|--------0-----0-------|--------4-------------|--0-----0-------------|
  |----------------------|----------------------|-----2----------------|-----0--2-------------|
  |-----3----------------|----------------------|--0-------------------|----------------------|
  |--1-------------------|--3-------------------|----------------------|--3-------------------|
                                                                     
                                                                          ^
     E  E  E  E  E  E       E  E  E  E  E  E       E  E  E  E  E  E       E  E  H             
  |-----0-----0--3-------|-----5-----0--1--3----|--0-------------------|--0-------------------|
  |--------3--------3----|--5-----3-------------|--------------0--3----|--0-------------------|
  |----------------------|-----------2----------|--------1--2----------|--------1-------------|
  |----------------------|-----0--3-------------|----------------------|----------------------|
  |-----3----------------|--0-------------------|-----2----------------|-----2----------------|
  |--1-------------------|----------------------|--0-------------------|--0-------------------|
       
  mp
     E  E  E  E  E  E       E  E  E  E  Q          E  E  E  E  E  E       E  E  E  E  E  E     
  |----------------------|--------------3-------|--------0--1-----0----|--7--------5----------|
  |-----------1-----3----|-----------1----------|--------------3-------|-----3--5-----3--5----|
  |--------4-----0-------|--------4-------------|----------------------|--------4-------------|
  |-----2----------------|-----3----------------|-----2----------------|-----3----------------|
  |--0-------------------|--0-------------------|--0-------------------|--0-------------------|
  |----------------------|----------------------|----------------------|----------------------|
                     

     E  E  E  E  E  E       E  E  E  E  Q          E  E  E  E  E  E       E  E  H              
  |--------8-----0--7----|--5--------3--0-------|--0--------0----------|--0-------------------|
  |----------------------|-----0--3-------------|--------3--------3----|--------0-------------|
  |-----------7----------|----------------------|-----2--------2-------|----------------------|
  |----------------------|-----2----------------|----------------------|-----2----------------|
  |-----7----------------|----------------------|-----3----------------|----------------------|
  |--5-------------------|--3-------------------|--1-------------------|--3-------------------|
                                                                     
                                     p.h
     E  E  E  E  E  E       E  E  E  E  Q          E  E  E  E  E  E       E  E  Q     Q        
  |-----0--------0-------|--0-----0-----0-------|--------0-----0-------|--0-------------------|
  |--------1--3-----3----|-----3--0-<0>---------|-----3-----------3----|--------0-------------|
  |--------2-------------|----------------------|-----------2----------|--------------0-------|
  |-----2----------------|-----2----------------|----------------------|-----0----------------|
  |--0-------------------|----------------------|-----3----------------|----------------------|
  |----------------------|--3-------------------|--1-------------------|--3-------------------|
                                                   
                                                   rall                         ^
     E  E  E  E  E  E       E  E  H                E  E  E  E  E  E       E  E  H              
  |--1--------0--1-------|----------------------|--5-----------0-------|--0-------------------|
  |-----------------3----|--0-------------------|-----------3-----3----|--------2-------------|
  |--2-----2-------------|--------0-------------|--2-----2-------------|--------2-------------|
  |----------------------|-----0----------------|--2--2----------------|-----2--2-------------|
  |-----3----------------|----------------------|--0-------------------|--0-----0-------------|
  |--1-------------------|--3-------------------|----------------------|----------------------|
        

     H.                  
  |----------------------||
  |--L-------------------||
  |--L-------------------||
  |--L-------------------||
  |--L-------------------||
  |----------------------||


Note Durations:
---------------
H.= Dotted Half Note - 3 Beats (Minim + Crotchet)
H = Half Note / Minim - 2 Beats
Q.= Dotted Quarter Note - 1 & 1/2 Beats (Crotchet + Quaver)
Q = Quarter Note / Crotchet - 1 Beat
E = Eighth Note / Quaver - 1/2 Beat


        
Comments

@c-style (November 30, 2013 at 7:50 AM)

Excellent tabbing. I don't remember this song specifically, but it came out very clean and simple, but still contemplatively charming.