Gametabs
Home
Tabs
Random

Yuukimaru's Theme

Average rating: 4.875

8 ratings

Composer:

Tabber:

Style:

Instrument:

Created: March 22, 2010 at 12:00 AM

            Yuukimaru's Theme     from Naruto Shippuuden                            

Yasuharu TAKANASHI >> score by Thaoxiong1 >> tab by Diralark

guitar (Capo 4)
      ^                          ^                        
      E  E  E  E  E  E  E  E     E  E  E  E  E  E  E  E   
E||------------------------0--|--------------------------|
B||------------1--3-----------|--------------------------|
G||*--2-----2-----------2-----|--2-----------2-----------|
D||*-----2-----2-----2--------|--------3-----------3-----|
A||---0-----------------------|-----3-----3-----3-----3--|
E||---------------------------|--1-----------------------|


  ^                                            ^      
  E  E  E  E  E  E  E  E     E  E  E  E  E  E  E  E   
-----------------------3--|--0-----------0-----0--3--|
-----------1--3-----------|--------1-----------1-----|
--2-----0-----4-----0-----|-----0-----0-----0--------|
-----0-----0-----0--------|--------------------------|
--------------------------|--3-----------------------|
--3-----------------------|--------------------------|


     III -- --|                                         
                      ^                                 
  E  E   E  E   E  E  E  E     E  E  E  E  E  E  E  E   
--5-------------------3--0--|--0-----------------------|
----------------------------|--------------1-----------|
----------------2-----------|--------2-----------2-----|
---------3------------3-----|-----2-----2-----2-----2--|
-----3------3------3--------|--0-----------------------|
--5---------L---------------|--------------------------|


  ^                          ^                        
  E  E  E  E  E  E  E  E     E  E  E  E  E  E  E  E   
-----------0--------------|--------------------------|
--3-----------0--------1--|--------------1-----------|
--------0-----2-----0-----|--2-----2-----------2-----|
-----0-----0-----0--------|-----2-----2-----2-----2--|
--------------------------|--0-----------------------|
--3-----------------------|--------------------------|


                               ^                                      
  E  E  E  E  E  E  E  E       W                   W                  
---------------------------||-------------------|-------------------||
--------0-----1------------||-------------------|-------------------||
--------------------2-----*||--2----------------|--L----------------||
-----2-----2-----2-----2--*||--2----------------|-------------------||
--0------------------------||--0----------------|--L----------------||
---------------------------||-------------------|-------------------||

Legend
---------------
W - whole
H - half
Q - quarter
E - 8th

^ - brush up
v - brush down


        
Comments

@Darkyle99 (March 23, 2010 at 9:14 AM)

Didn't saw that coming, i was on the way trying to arrange it too, good job!!


@Brave Toaster (March 24, 2010 at 8:02 AM)

Trident of the seagod, it surprised me! Never saw anyone putting really effort on Naruto's OST! Congratulations for this tablature, it sounds really smooth and is nice to play. Thank you for sharing it with us. I hope to see more works from you!


@diralark (March 24, 2010 at 6:34 PM)

Thank you for kind comments ^^


@Jasmydae (July 15, 2012 at 6:05 PM)

I'd never heard this song before, but the tab was very easy to play and beautiful. I recorded a video of it.