Gametabs
Home
Tabs
Random

Yamagasumi (Mountain Haze) - Hard

Average rating: 5.000

5 ratings

Composer:

Tabber:

Style:

Instrument:

Created: August 19, 2017 at 12:00 AM

            Title: Yamagasumi (Mountain Haze)
SubTitle: Naruto Shippuden
Artist: Takanashi Yasaharu
Tabber: Mitch Jackson
Tempo = 57
T/S = 4/4



   ♪♫•*¨*•.¸¸ CAPO 3 ¸¸.•*¨*•♫♪


     ^                             ^                            ^                            ^
     E  E  H           S S E       E  E  H                      E  E  H           E  E       E  E  H.
E |--------3--------------------|--5-------------------------|--3h-5--0-------------------|-----0----------------------|
B |--3h-5--------------3-Ls5----|--5--8--5-------------------|--3-----------------3-------|--3-------------------------|
G |--4--------------------------|--5-------------------------|--4--------------------5----|--2-----2-------------------|
D |--5--------------------------|--7-------------------------|--5-------------------------|----------------------------|
A |-----------------------------|----------------------------|----------------------------|----------------------------|
D |-----------------------------|----------------------------|----------------------------|----------------------------|
                           
     ^                             ^                            ^                            ^  
     E  E  Q     Q     S S E       E  E  H                      E  E  Q     Q     E  E       E  E  H.
  |--------3--------------------|--5--7--5-------------------|--3h-5--0-------------------|-----0----------------------|
  |--3h-5--3-----------3-Ls5----|--5----(5)------------------|--3-----------3-----3-------|--3-------------------------|
  |--4-----------4--------------|--5----(5)------------------|--4-----4--------------5----|--2-----2-------------------|
  |--5--------------------------|--7-------------------------|--5-------------------------|----------------------------|
  |-----------------------------|----------------------------|----------------------------|----------------------------|
  |-----------------------------|----------------------------|----------------------------|----------------------------|

     ^                      
     E  E  E  Q     E  E  E       E  E  E  E  E  E  Q          E  E  E  Q     E  E  E       E  E  Q     E  E  Q
  |----------------------------|----------------------------|-----------------0-----0----|--------3-----0-------------|
  |--1--------0--------3--0----|-----------0--0-------------|--------------------3-------|--3-----0-------------------|
  |--4-----0--------2----------|--------0-----------5-------|--2--------2----------------|--------------------0-------|
  |-----2----------------------|-----2-----------0----------|--------2-------------------|-----0-----------2----------|
  |--0-------------------------|--0-------------------------|-----3----------------------|--------------3-------------|
  |----------------------------|--------------5-------------|--3-------------------------|--5-------------------------|

                                                         
     E  E  E  E  E  E  E  E       E  E  E  E  E  E  E  E       E  E  E  Q     E  E  E       E  E  Q     E  E  Q
  |--0-------------------------|--------------0-------------|-----------------0-----5----|--3-----1-----0-------------|
  |--------3-----1----(1)-1----|--3-----3--0-----------0----|--1-----------------3-------|--------0-----------1-------|
  |-----------2--------4-(2)---|--------------0-----0-------|-----------2----------------|--------------------0-------|
  |--------3--------0----------|--------2-----------2-------|--------2-------------------|-----0-----------2----------|
  |-----0----------------------|-----2-----------2----------|-----3----------------------|--------------3-------------|
  |--0-------------------------|--2-----------2-------------|--3-------------------------|--5-------------------------|


     E  E  E  E  E  E  E  E       E  E  E  E  E  E  E  E       E  E  E  E  E  E  E  E       E  E  E  E  E  E  E  E      
  |--0-----------1-----0--1----|--3-----------5-----0-------|--7--8--7-----0-----3-------|--5-----------0-------------|
  |--------3-----------1-------|--0-----3--0-----------0----|----------------------------|--------3-----------1-------|
  |--2--------2-----------2----|--------0-----------0-------|-----------7-----------2----|--------4--0-----------0----|
  |--------3--------0----------|--------2-----------2-------|--------10-7--------2-------|-----0-----------2----------|
  |-----0----------------------|-----2-----------2----------|-----7-----------3----------|--------------3-------------|
  |--0-------------------------|--2-----------2-------------|--7-----------3-------------|--5-------------------------|

                 ^                                         
     E  E  E  E  E  E  E  E       E  E  E  E  E  E  E  E       E  E  E  E  E  E  E  E       E  E  E  E  E  E  E  E
  |--0--1--0-------------------|--------0-----3-----0--3----|--7--8--7-----0-----3-------|--5-----------0-------------|
  |--------------0-----1-------|--3-----------------0-------|----------------------------|--------3----------(1)------|
  |-----------2--2--------2----|--2-----2--------------0----|-----------7-----------2----|--------4--0--------4--0----|
  |--------3--------2----------|-----------2-----0----------|--------10-7--------2-------|-----0-----------2----------|
  |-----0--------0-------------|-----3----------------------|-----7-----------3----------|--------------3-------------|
  |--0-------------------------|--3-----------5-------------|--7-----------3-------------|--5-------------------------|

                 ^                                             |-3-|                                                   |-3-|
     E  E  E  E  E  E  E  E       E  E  E  E  E  E  E  E       T T T S E  E  Q     E  E  E       E  E  E  Q     E  E.  T T T	
  |--0--1--0-------------------|--------0-----3-------------|---------------------------------|--------------------------------|
  |--------------0-----1-------|--3-----------------0-------|----------------0--------3--0----|-----------0--------------0h1---|
  |-----------2--2--------2----|--2-----2--------------0----|----2-2-2----0--------2----------|--------0-----------0---2-------|
  |--------3--------2----------|-----------2-----0----------|----------2----------------------|-----2-----------2--------------|
  |-----0--------0-------------|-----3----------------------|--0------------------------------|--0-----------------------------|
  |--0-------------------------|--3-----------5-------------|---------------------------------|--------------------------------|

                          |-3-|                                
     E  E  E  E  E  E  E  S S S      E  E  E  E  E  E  Q          E  S S S S Q     E  E  E       E  E  E  Q     E  Q
  |--0-----------0--------3h5p3---|--0-------------------------|-------3---5------------------|----------------------------|
  |-------(0)-0--------3--0-------|-----------0--3-----0-------|-------------0--------3--0----|-----------0----------------|
  |--------0--------2-------------|--------0-----------0-------|--2------0---------2----(0)---|--------0-----------0-------|
  |-----2-------------------------|-----2-----------2----------|-----2------------------------|-----2-----------2----------|
  |--0----------------------------|--0-------------------------|--0---------------------------|--0-------------------------|
  |-------------------------------|----------------------------|------------------------------|----------------------------|

     |-3-|                                                        rall------->
     T T T S E  E  E  E  E  E  E       E  E  E  Q     E  Q          E  E  H.                     W
  |-------------0-------------------|----------------------------|----------------------------|---------------------------||
  |----------------0--3-----3--0----|-----------0----------------|----------------------------|---------------------------||
  |----2-2-2----0--------2----------|--------0-----------0-------|--------2-------------------|--L------------------------||
  |----------2----------------------|-----2-----------2----------|-----2----------------------|--L------------------------||
  |--0------------------------------|--0-------------------------|--0-------------------------|--L------------------------||
  |---------------------------------|----------------------------|----------------------------|---------------------------||

        
        
Comments

@BigHeadClan (August 21, 2017 at 11:46 PM)

Awesome job sir happily add this to my collection of tabs, seems like your "easy" and hard versions are the same.

Copy paste error perhaps? I didn't look super close though so maybe I missed something.