Gametabs
Home
Tabs
Random

Man of the World

Average rating: 4.833

6 ratings

Composer:

Tabber:

Style:

Instrument:

Created: April 16, 2012 at 12:00 AM

                                                Man Of The World ~ Utsusemi
                                        NARUTO SHIPPUUDEN
    Composer : Takanashi Yasuharu
    Arrange : Guitardora
    Date : 16 / 4 / 2012
 


E |--1--3----|--0L-0----|-----0----|--1----|--6--5----|--3-------------|
B |----------|----------|--3-------|-------|----------|--1-------------|
G |--2-------|----------|----------|-------|--0-------|----------------|
D |--0-------|----------|--3-------|-------|--0-------|----------------|
A |----------|----------|--1-------|--1----|----------|----------------|
E |----------|----------|----------|-------|----------|----------------|


--3--1----|-----0----|--1-----3-------|--0-------------------------|
----------|----------|----------------|----------------------------|
--0-------|----------|-----2-----2----|--------------0-------------|
----------|-----2----|--0-------------|--------2-----------2L-2----|
--3-------|-----0----|----------------|--3-------------------------|
----------|----------|----------------|----------------------------|


--------0-------|--1-------------|--6-----5-------|
--3-------------|--------3-------|----------------|
----------------|--------3-------|-----------0----|
-----3-----3----|-----3-----3----|-----0----------|
--1-------------|----------------|----------------|
----------------|----------------|--3-------------|


--3-------------------------------------------------|----------------|
--------------3-----------5-------------------------|--8-----6-------|
----------------------------------------------------|-----0-----0----|
--------------------------5-------------------------|----------------|
--3-------------------------------------------------|----------------|
----------------------------------------------------|--8-------------|


----------------|--------0--1----|--------0-------|----------------|
--5-------------|-----------3----|-----------3----|--------1--3----|
--------5-------|-----2----------|-----2----------|-----2----------|
-----5----------|--0-------------|--0-------------|--0-------------|
----------------|----------------|----------------|-----------1----|
----------------|----------------|----------------|----------------|


-----1----------|--1-----0-------|--5-------------|----------------|
--------5--1----|-----------3----|--------6--5----|--5--------5----|
--3-----5--0----|-----2-----2----|----------------|-----0--5-------|
--1-------------|--0-------------|-----7----------|----------------|
----------------|----------------|--5-------------|--0-------------|
----------------|----------------|----------------|----------------|


--8-------------|--6-------------|--5-------------|--8-------------|
--------6--5----|--------8-------|--------6--5----|-----------5----|
-----5----------|-----7-----7----|-----7----------|--------5-------|
----------------|--5-------------|--0-------------|-----7----------|
----------------|----------------|----------------|--0-------------|
--5-------------|----------------|----------------|----------------|


----------------|--1-----0-------|--5-------------|----------------|
--6--5----------|-----------3----|--------6--5----|--5-----5-------|
--------5-------|-----2-----2----|----------------|-----0-----5----|
-----------7----|--0-------------|-----7----------|----------------|
----------------|----------------|--5-------------|--0-------------|
----------------|----------------|----------------|----------------|


--8-------------|--6-------------|--5-------------|--8--------10---|
--------6--5----|--------8-------|--------6--5----|----------------|
-----5----------|-----7-----7----|-----7----------|--------0-------|
----------------|--5-------------|--0-------------|--------5-------|
--0-------------|----------------|----------------|-----7----------|
----------------|----------------|----------------|--8-------------|


--12------------|-----------------0-------|--------5--3----|--3-----1-------|
--0--13---------|--3-----------------3----|--1-------------|----------------|
--0-----12-9----|--3--------3-------------|----------------|-----2-----2----|
--12------------|-----3-------------------|-----2----------|--0-------------|
----------------|--1----------------------|--3-------------|----------------|
----------------|-------------------------|----------------|----------------|


--0-----1-------|--1-----3-------|--5-------------|----------------|
----------------|--------1-------|--------5-------|--1--3--3-------|
-----2----------|----------------|-----0--5--0----|--0--------0----|
----------------|-----3----------|----------------|--2-----0-------|
----------------|--1-------------|--3-------------|--3-------------|
----------------|----------------|----------------|----------------|


----------------------------|--------0-------|
--1-----------0-----1--3----|--3-------------|
--------0-------------------|--3-------------|
----------------------------|--3--3-----3----|
----------------------------|--1-------------|
----------------------------|----------------|


--------------------------4s-5--------3-------------|--6-------------|
--1-------------------------------------------------|--6-----10------|
--------------------------4s-5----------------------|----------------|
--------------2-------------------------------------|-----8-----8----|
--3-----------------------------------3-------------|--6-------------|
----------------------------------------------------|----------------|


----------------|--1-----3-------|--5-------------|----------------|
--6-----5-------|----------------|--------5-------|--1--3--3-------|
----------------|----------------|--5-----5--5----|--0-----2--2----|
-----8----------|-----3----------|-----5----------|--2-------------|
----------------|--1-------------|--3-------------|--3-------------|
----------------|----------------|----------------|----------------|


--------1--3----|--------1--0----|-----------0----|-----1--0-------|-------||
--3-----3-------|----------------|--------1-------|--3--------1----|--3----||
-----2----------|-----2----------|-----2----------|----------------|--2----||
--0-------------|--0-------------|--0-------------|----------------|--0----||
----------------|----------------|----------------|--1-----3-------|-------||
----------------|----------------|----------------|----------------|-------||


  


Legend
L - tied note
x - dead note
h - hammer on/pull off
b - bend
s - slide
~ - vibrato
g - ghost note
> - accentuated note
t - trill
M - palm mute
. - staccato
P - popping (bass)
S - slapping (bass)
+ - tapping
W - wide vibrato
< - fade in
w - whammy bar
= - tremolo picking
v - brush up
^ - brush down
V - pick stroke up
n - pick stroke down
        
Comments

@paperwings (April 17, 2012 at 6:08 PM)

LOVING IT