Gametabs
Home
Tabs
Random

Sakura

Average rating: 5.000

1 ratings

Composer:

Tabber:

Style:

Instrument:

Created: June 23, 2012 at 12:00 AM

            Title: Sakura
SubTitle: (aka Eightmoon)
Artist: Shitoshi Fujimoto, Ebi
Album: Narcissu
Tabber: Czethros
Tempo = 152
Steel Guitar

Legend
L - tied note
x - dead note
h - hammer on/pull off
b - bend
s - slide
~ - vibrato
g - ghost note
> - accentuated note
t - trill
M - palm mute
. - staccato
P - popping (bass)
S - slapping (bass)
+ - tapping
W - wide vibrato
< - fade in
w - whammy bar
= - tremolo picking
v - brush up
^ - brush down
V - pick stroke up
n - pick stroke down


     Q    Q      Q    Q       H.             Q       H.           E   E   
E||------------------------|----------------------|----------------------|
B||------------------------|--2------------4g5----|----------------------|
G||------------0g2----4----|----------------------|--4------------4h--6--|
D||------------------------|----------------------|----------------------|
A||------------------------|----------------------|----------------------|
E||------------------------|----------------------|----------------------|


  H.           Q       H        Q    Q         Q    Q    Q    Q     
--------------------|----------------0----|--4g5----4----4---------|
--------------------|-----------2---------|-------------------5----|
--4------------2----|--2------------------|------------------------|
--------------------|---------------------|------------------------|
--------------------|---------------------|------------------------|
--------------------|---------------------|------------------------|


  Q     H        E   E     Q     H        Q        H         Q    Q     
------------------------|-----------------------|----------------------|
------------------------|-----------------5~----|--L~-------------5----|
--6s----4--------2h--4--|--4s----6--------------|------------6---------|
------------------------|-----------------------|----------------------|
------------------------|-----------------------|----------------------|
------------------------|-----------------------|----------------------|


    Q    Q    Q    Q        H         Q    Q       Q    Q      Q    Q     
-------------------------|----------------------|------------------------|
--5g7----5----7----------|-----------------7----|--5----7----7g9---------|
-------------------------|----------------------|-------------------6----|
-------------------7~----|--L~--------7---------|------------------------|
-------------------------|----------------------|------------------------|
-------------------------|----------------------|------------------------|


  Q     Q    Q    Q         H.            Q        Q     Q    Q      Q     
-----------------------|------------------------|-------------------------|
------------------2----|--2g3~------------------|-------------------------|
--Ls----3----4---------|------------------2~----|--L~---------2----2g4----|
-----------------------|------------------------|--------4----------------|
-----------------------|------------------------|-------------------------|
-----------------------|------------------------|-------------------------|


  W                   H        Q    Q         H.            Q     
-------------------|---------------------|-----------------------|
-------------------|---------------------|------------------5----|
--L----------------|--L--------2----4----|--4g6~-----------------|
-------------------|---------------------|-----------------------|
-------------------|---------------------|-----------------------|
-------------------|---------------------|-----------------------|


  H.            E   E     H.            Q       H        Q    Q     
-----------------------|---------------------|----------------0----|
-----------------------|---------------------|-----------2---------|
--4~------------4h--6--|--4~------------2----|--2------------------|
-----------------------|---------------------|---------------------|
-----------------------|---------------------|---------------------|
-----------------------|---------------------|---------------------|


    Q    Q    Q    Q         Q    Q    E   E  E   E     Q      H        Q      
--4g5----4----4---------|----------------------------|------------------------|
-------------------5----|----------------------------|------------------5~----|
------------------------|--4g6----4----Ls--2--2h--4--|--4----4g6--------------|
------------------------|----------------------------|------------------------|
------------------------|----------------------------|------------------------|
------------------------|----------------------------|------------------------|


  H         Q    Q         Q    Q    Q      Q       H           Q    Q     
----------------------|-------------------4g5----|--L~--------4g5----4----|
--L~-------------5----|--5g7----5----7-----------|------------------------|
------------6---------|--------------------------|------------------------|
----------------------|--------------------------|------------------------|
----------------------|--------------------------|------------------------|
----------------------|--------------------------|------------------------|


  Q    Q    Q    Q        Q       Q    Q    Q         H.            E  E   
------------4----------|-------------------------|------------------------|
--5----7---------------|--------3g5----3----2----|--2g3~------------5-----|
-----------------6~----|--L~---------------------|------------------------|
-----------------------|-------------------------|---------------------4--|
-----------------------|-------------------------|------------------------|
-----------------------|-------------------------|------------------------|


  Q     Q    E   E   Q       W                   W                 
--------------------------|-------------------|-------------------|
--------------------------|-------------------|-------------------|
--------2----6p--4p--2----|--L----------------|--L----------------|
--L~----------------------|-------------------|-------------------|
--------------------------|-------------------|-------------------|
--------------------------|-------------------|-------------------|


    H.            E  E     H.            Q       E   E  H.             
--4g5~------------4-----|---------------------|-----------------------|
---------------------7--|--L~------------5----|--5s--7--7~------------|
------------------------|---------------------|-----------------------|
------------------------|---------------------|-----------------------|
------------------------|---------------------|-----------------------|
------------------------|---------------------|-----------------------|


  H         E   E  E  E     Q    E  Q.      Q        W                  
-------------------4--5--|--4---------------------|--------------------|
--L~--------L~--7--------|-------5----------------|--------------------|
-------------------------|----------6~------L~----|--L~----------------|
-------------------------|------------------------|--------------------|
-------------------------|------------------------|--------------------|
-------------------------|------------------------|--------------------|


  W                    Q       Q    Q    Q         H.            E   E   
--------------------|--------------------4----|--4g5~------------4s--2--|
--------------------|---------------5---------|-------------------------|
--L~----------------|--L~----4g6--------------|-------------------------|
--------------------|-------------------------|-------------------------|
--------------------|-------------------------|-------------------------|
--------------------|-------------------------|-------------------------|


  H.            Q       E   E  H.               Q.      E  E  E   E   E    
--L~-----------------|-----------------------|-------------5--7s--9-------|
----------------5----|--5s--7--7~------------|--L~------5------------10s--|
---------------------|-----------------------|----------------------------|
---------------------|-----------------------|----------------------------|
---------------------|-----------------------|----------------------------|
---------------------|-----------------------|----------------------------|


   Q     E   Q.       E   E       Q.       E    E   E   E   E   
--------12-----------12--12~--|---L~------12s--14--12----------|
--12--------12~---------------|------------------------14------|
------------------------------|----------------------------14--|
------------------------------|--------------------------------|
------------------------------|--------------------------------|
------------------------------|--------------------------------|


   E    E   Q     H             Q     Q    Q    Q     
----------------------------|--------------0----4----|
----------------------------|---------2--------------|
--13h--14--14----14~--------|---L~-------------------|
----------------------------|------------------------|
----------------------------|------------------------|
----------------------------|------------------------|


    Q    E  Q.     E  E      H.            E  E       Q    E  E  H          
--4g5----4----------------|-------------------4--|--4g5----4---------------|
------------7------5--7~--|--L~------------7-----|------------7--L~--------|
--------------------------|----------------------|-------------------------|
--------------------------|----------------------|-------------------------|
--------------------------|----------------------|-------------------------|
--------------------------|----------------------|-------------------------|


  H         E   E   E   E     Q    E  Q.      E  E   
----------------4h--5p--4--|------------------------|
--L~--------L~-------------|--7----5--5~---------5--|
---------------------------|------------------6-----|
---------------------------|------------------------|
---------------------------|------------------------|
---------------------------|------------------------|


  Q.      E  E  E   E  E      E   E  H.               Q     Q    Q      Q     
---------------------------|-----------------------|-------------------------|
--L~------5-----5s--7------|-----------------------|-------------------------|
-------------6---------6s--|--4s--2--2~------------|--L~----2----4----4g6----|
---------------------------|-----------------------|-------------------------|
---------------------------|-----------------------|-------------------------|
---------------------------|-----------------------|-------------------------|


                                                           |----3----|     
  Q     Q    H            H.            E  E     H         Q    Q    Q     
-----------------------|----------------------|---------------------------|
-----------------------|----------------------|---------------------------|
--4s----2----2~--------|--L~------------1--2--|--4~--------L----4----6----|
-----------------------|----------------------|---------------------------|
-----------------------|----------------------|---------------------------|
-----------------------|----------------------|---------------------------|


  Q    E  Q.      E  E     H.            E  E      H        H         
------------------------|-----------------------|--------------------|
-------5-------------5--|--5~------------7------|--------------------|
--4-------6~------6-----|-------------------6s--|--4--------2--------|
------------------------|-----------------------|--------------------|
------------------------|-----------------------|--------------------|
------------------------|-----------------------|--------------------|


  W                   H        Q     Q           Q     Q     Q     Q      
-------------------|----------------------|-----------------------12~----|
-------------------|----------------10----|--10g12----10----12-----------|
--4----------------|--L--------9----------|------------------------------|
-------------------|----------------------|------------------------------|
-------------------|----------------------|------------------------------|
-------------------|----------------------|------------------------------|


   H.            E   E         Q     Q     Q     Q      
---L~-------------------|-----------------------12~----|
--------------------10--|--10g12----10----12-----------|
-----------------9------|------------------------------|
------------------------|------------------------------|
------------------------|------------------------------|
------------------------|------------------------------|


   H             Q     E   E      H.            E   E   
---L~--------12g14----12------|-----------------9--10--|
------------------------------|------------------------|
--------------------------14--|---L~-------------------|
------------------------------|------------------------|
------------------------------|------------------------|
------------------------------|------------------------|


      Q     Q    Q     Q       H.             E    E      H        Q     Q     
--10g12----10----9----------|--9~---------------------|-----------------------|
----------------------10----|----------------10s--12--|---L-------------10----|
----------------------------|-------------------------|------------9----------|
----------------------------|-------------------------|-----------------------|
----------------------------|-------------------------|-----------------------|
----------------------------|-------------------------|-----------------------|


      Q     Q     Q     Q         H.            E   E   
-----------------------12~----|---L~-------------------|
--10g12----10----12-----------|--------------------10--|
------------------------------|-----------------9------|
------------------------------|------------------------|
------------------------------|------------------------|
------------------------------|------------------------|


      Q     Q     Q     Q         Q     Q     Q    Q     
-----------------------12~----|---L~----9----------9----|
--10g12----10----12-----------|--------------12---------|
------------------------------|-------------------------|
------------------------------|-------------------------|
------------------------------|-------------------------|
------------------------------|-------------------------|


      Q     H.                 Q    Q        Q     Q         W                  
-------------------------|--9g10----9--------------------|---------------------|
--12g10----10------------|---------------10g12----10~----|---L~----------------|
-------------------------|-------------------------------|---------------------|
-------------------------|-------------------------------|---------------------|
-------------------------|-------------------------------|---------------------|
-------------------------|-------------------------------|---------------------|


-------|-------||
-------|-------||
-------|-------||
-------|-------||
-------|-------||
-------|-------||

        
Comments

@Trenched (June 24, 2012 at 10:21 PM)

That was one of the nicest sounding Guitar Pro tracks that I've listened to in awhile, well done!