Gametabs
Home
Tabs
Random

Netsujou no Spectrum

Average rating: 5.000

1 ratings

Composer:

Tabber:

Style:

Instrument:

Created: May 18, 2016 at 12:00 AM

            Title: Nanatsu No Taizai OP1
Artist: Ikimono Gakari
Album: 
Author: Arrangement: Eduardo Barelli


Track 1: Netsujou no Spectrum by Ikimono Gakari

E|-------6-----------------------|---------------------|-2-----2----7----|-5----7----0----3----|
B|----------8--7--5--7--5--------|------2----3----5----|-0---------------|---------------------|
G|-------------------------7--6--|-4-------------------|-0---------------|---------------------|
D|-------------------------------|-4-------------------|-2---------------|---------------------|
A|-------------------------------|-2-------------------|-----------------|-4----7----0----4----|
E|-------------------------------|---------------------|-----------------|---------------------|


E|-2-----5----0---2---|-3---2---0----------------0---|-2---0------------------------|
B|--------------------|-------------3---2----3-------|---------3---2----------------|
G|--------------------|------------------------------|-----------------4----4---2---|
D|-0------------------|------------------------------|------------------------------|
A|--------------------|-4---------------1------------|-2-------0--------------------|
E|--------------------|------------------------------|-----------------4------------|


E|----------------3----|-2-------0--------------------|---------------------|-2---------2----7----|
B|---------------------|-----------------3-------2----|------2----3----5----|-0-------------------|
G|-0----2----4---------|------------------------------|-4-------------------|-0-------------------|
D|---------------------|---------------------2--------|-4-------------------|-2----2----2---------|
A|---------------------|-1---1-------4----------------|-2----2----2----2----|----------------7----|
E|-0-------------------|------------------------------|---------------------|---------------------|


E|-5----7----0----3----|-2--------2-----0---2---|-3---2---0----------------0---|-2---0------------------------|
B|---------------------|----------3-------------|-------------3---2----3-------|---------3---2----------------|
G|---------------------|------2-----------------|------------------------------|-----------------4----4---2---|
D|---------------------|-0----------------------|------------------------------|-----------------0----4-------|
A|-4---------0---------|------------------------|------------------------------|-2-------4--------------------|
E|---------------------|------------------------|-0---------------2------------|------------------------------|


E|-0--------------3----|-2-----5----2---7---|-7---------------------------|------------------------|
B|-0---------0---------|-2------------------|-----------------------------|------------------------|
G|-0----2--------------|-3------------------|----------------4---6----7---|-7----9----6---7----9---|
D|-2-------------------|-4------------------|-----------------------------|------------------------|
A|-2-------------------|-4------------------|----------------2---4----5---|-5----7----4---5----7---|
E|-0-------------------|-2--------------7---|-7---7--7--7-----------------|------------------------|


E|------------------------|---------------9-------2---|-----2---------------------------|
B|------------------------|----------11---------------|---------5---5---3---3---2---3---|
G|-9----11---7---9----11--|-11--12--------7---9-------|---------------------------------|
D|------------------------|----------8----------------|---------------------------------|
A|-7----9----5---7----9---|-9---10--------------------|-2-------2---2---2---2---2---2---|
E|------------------------|---------------------------|---------------------------------|


E|---------------------------------|----------2---2------------|-------------2-----------0---2---|
B|-3---3---2---2---0---0-----------|-0--------3---3------------|-----3-------3-------3---3-------|
G|-------------------------2---2---|-0-------------------------|-----0---------------0-----------|
D|---------------------------------|---------------------------|---------------------------------|
A|-0-------0---0---0---0---0---0---|------x------------x-------|---------x---------------x-------|
E|---------------------------------|-3----x-------3----x---3---|-3-------x-------3-------x-------|


E|-----2---------------------------|---------------------------------|----------2---2----2-------|
B|---------5-------3---2-------3---|-----3---2-------0-----------0---|----------3---3----3-------|
G|---------4-----------------------|---------2-----------2-----------|---------------------------|
D|---------------------------------|---------------------------------|---------------------------|
A|-2-------x---2-----------x-------|-0-------x---0-----------x-------|------x------------x-------|
E|---------x---------------x-------|---------x---------------x-------|-3----x-------3----x---3---|


E|-------------2----------------|-----------------------------5---|-2---------------5---------------|
B|-----3----------------0---2---|-3-----------3---2---3---5-------|---------2---3-------3-----------|
G|----------------------0-------|---------0-----------------------|-------------------------4---2---|
D|------------------------------|-----2---------------2-----------|-----4---------------------------|
A|---------x------------x-------|-----------------0---------------|-----------------2---------------|
E|-3-------x--------3---x-------|-0-------------------------------|-2-------------------------------|


E|--------------------------3---|-2----0-----------------|-----------------------------5---|
B|---------0--------0---2-------|-----------3----3---2---|-3-----------3---2---3---5-------|
G|-0------------3---------------|------------------------|---------0-----------------------|
D|--------------4---------------|------------------------|-----2---------------2-----------|
A|-----2--------1---------------|-2----0-----------------|-----------------0---------------|
E|-0----------------------------|-----------4------------|-0-------------------------------|


E|-2---------------5---------------|-2--------------0---2---|----------0---0--------2---|
B|---------2---3-------3---3---5---|------0----3------------|-------------------3-------|
G|---------------------------------|------------------------|---------------------------|
D|-----4---------------------------|------------------------|---------------------------|
A|-----------------2---------------|------x---------x-------|------x------------x-------|
E|-2-------------------------------|-0----x----0----x-------|-0----x-------0----x-------|


E|---------2--------2---2---2---|------------------------------|-----------------------------2---|
B|---------2------------2-------|------------------------------|---------2-------3-------5-------|
G|-----3----------------3-------|-----3------------------------|-4-------4-----------------------|
D|------------------------------|------------------------------|-4-------------------------------|
A|---------x------------x-------|---------x---x---x---x---x----|-2---2---x---2-------2---x-------|
E|-2-------x----2-------x-------|-2-------x---x---x---x---x----|---------x---------------x-------|


E|---------2-------2-------7----|-5-------7-----------------------|---------------------------------|
B|---------0---------------0----|-5-------5-------5-------8---7---|---------7---7-----------5---7---|
G|-----0---------------0--------|-6---6---------------------------|---------7-----------------------|
D|------------------------------|---------------------------------|-----7---------------7-----------|
A|---------x---------------x----|-0-------x---0-------0---x-------|-5-------x-------5-------x-------|
E|-0-------x---0-----------x----|---------x---------------x-------|---------x---------------x-------|


E|-3---2---0----------------0---|-2---0------------------------|-------------------3----|
B|-------------3---2----3-------|---------3---2----------------|------------------------|
G|------------------------------|-----------------4----4---2---|-0----2-------4---------|
D|------------------------------|------------------------------|------------------------|
A|-4---------------1------------|-2-------0--------------------|------------------------|
E|------------------------------|-----------------4------------|-0--------0--------0----|


E|-2----0-----------------|-----------------------------2---|---------2-------2-------7----|
B|--------------3----2----|---------2-------3-------5-------|---------0---------------0----|
G|------------------------|-4-------4-----------------------|-----0---------------0--------|
D|-------------------2----|-4-------------------------------|------------------------------|
A|-1--------4-------------|-2---2---x---2-------2---x-------|---------x---------------x----|
E|------------------------|---------x---------------x-------|-0-------x---0-----------x----|


E|-5----7-----------------------|---------------------------------|-3---2---0----------------0---|
B|-5----5-------5-------8---7---|---------7---7-----------5---7---|-------------3---2----3-------|
G|-6----------------------------|---------7-----------------------|------------------------------|
D|------------------------------|-----7---------------7-----------|------------------------------|
A|-0----x---0-------0---x-------|-5-------x-------5-------x-------|------------------------------|
E|------x---------------x-------|---------x---------------x-------|-0---------------2------------|


E|-2---0------------------------|-0--------------3----|-2-----5----2---7---|-7---------------------------|
B|---------3---2----------------|-0---------0---------|-2------------------|-----------------------------|
G|-----------------4----4---2---|-0----2--------------|-3------------------|----------------4---6----7---|
D|-----------------0----4-------|-2-------------------|-4------------------|-----------------------------|
A|-2-------4--------------------|-2-------------------|-4------------------|----------------2---4----5---|
E|------------------------------|-0-------------------|-2--------------7---|-7---7--7--7-----------------|


E|------------------------|------------------------|---------------9-----|-2------|
B|------------------------|------------------------|----------11---------|-3------|
G|-7----9----6---7----9---|-9----11---7---9----11--|-11--12--------6-----|-4------|
D|------------------------|------------------------|----------8----------|-4------|
A|-5----7----4---5----7---|-7----9----5---7----9---|-9---10--------------|-2------|
E|------------------------|------------------------|---------------------|--------|




        
Comments

@thedstring (September 26, 2016 at 4:52 AM)

This was really cool =)