Gametabs
Home
Tabs
Random

Mushishi no Theme

Average rating: 5.000

5 ratings

Composer:

Tabber:

Style:

Instrument:

Created: May 20, 2016 at 12:00 AM

            Title: Mushi No Theme
SubTitle: Mushishi
Artist: Masuda Toshio
Tabber: Mitch Jackson
Tempo = 105
T/S = 6/4


    ♪♫•*¨*•.¸¸ CAPO 7 ¸¸.•*¨*•♫♪


   1/4  |-3-|    6/4                                |-3-|                                       |-3-|
        S S S      E  E  E  Q     E  Q     E  Q     S S S      E  E  E  Q     E  Q     E  Q     S S S 
E |-------------|-------------------------------------------|-------------------------------------------|
B |-----5p3p1---|--0--------0--------0--------1-----5p3p1---|--0--------0--------0--------1-----5p3p1---|
G |-------------|--------2-----------2--------2-------------|--------2-----------2--------2-------------|
D |-------------|-----2-----------2--------2----------------|-----2-----------2--------2----------------|
A |-------------|--0----------------------------------------|--0----------------------------------------|
D |-------------|-------------------------------------------|-------------------------------------------|

                                      |-3-| 
     E  E  E  Q     E  Q     E  Q     S S S      E  E  E  Q     E  Q     E  Q     E       E  E  E  Q     E  Q     E  E  E  E
  |-------------------------------------------|-----------------------------0----------|----------------------------------------|
  |--0--------0--------0--------1-----5p3p1---|--0--------0--------0--------------1----|--0--------0--------0--------1-----0----|
  |--------2-----------2--------2-------------|--------2-----------2--------2----------|--------2-----------2--------2--0-------|
  |-----2-----------2--------2----------------|-----2-----------2--------2-------------|-----2-----------2--------2-------------|
  |--0----------------------------------------|--0-------------------------------------|--0-------------------------------------|
  |-------------------------------------------|----------------------------------------|----------------------------------------|


     E  E  E  Q     E  Q     E  Q     E       E  E  E  Q     E  Q     E  E  E  E       E  E  E  Q     E  Q     E  Q.
  |-----------------------------0----------|----------------------------------------|--------0-------------------------------|
  |-----------0--------0--------------1----|--0--------0--------0--------1-----0----|-----3-----0--------0--------1----------|
  |--2-----2-----------2--------2----------|--------2-----------2--------2--0-------|--2-----2-----------2--------2----------|
  |-----2-----------2--------2-------------|-----2-----------2--------2-------------|-----2-----------2--------2-------------|
  |--0-------------------------------------|--0-------------------------------------|--0-------------------------------------|
  |----------------------------------------|----------------------------------------|----------------------------------------|

                                                                               |-3-|
     E  E  E  Q     E  Q     E  E  E  E       E  E  E  Q     E  Q     E  Q     S S S      E  E  E  Q     E  Q     E  Q.
  |--3--------------------------1--3--1----|--0----------------------------------------|--0-------------------------------------|
  |--0--------0--------0--------1----------|--0--------0--------0--------3-----5p3p1---|--0--------0--------0--------1----------|
  |--------2-----------2--------2----------|--------2-----------2--------2-------------|--------2-----------2--------2----------|
  |-----3-----------3--------3-------------|-----3-----------3--------3----------------|-----2-----------2--------2-------------|
  |--0-------------------------------------|--0----------------------------------------|--0-------------------------------------|
  |----------------------------------------|-------------------------------------------|----------------------------------------|


     E  E  E  Q     E  Q     E  Q     E       E  E  E  Q     E  Q     E  E  E  E       E  E  E  Q     E  Q     E  Q     E
  |-----------------------------0----------|----------------------------------------|-----------------------------0----------|
  |--0--------0--------0--------------1----|--0--------0--------0--------1-----0----|-----------0--------0--------------1----|
  |--------2-----------2--------2----------|--------2-----------2--------2--0-------|--2-----2-----------2--------2----------|
  |-----2-----------2--------2-------------|-----2-----------2--------2-------------|-----2-----------2--------2-------------|
  |--0-------------------------------------|--0-------------------------------------|--0-------------------------------------|
  |----------------------------------------|----------------------------------------|----------------------------------------|


     E  E  E  Q     E  Q     E  E  E  E       E  E  E  Q     E  Q     E  Q     E       E  E  E  Q     E  Q     E  E  E  E
  |----------------------------------------|--------0-------------------------------|-----0--0-------------------------------|
  |--0--------0--------0--------1-----0----|-----3-----0--------0--------1----------|--0--------0--------0--------1--3--1----|
  |--------2-----------2--------2--0-------|--2-----2-----------2--------2----------|--2-------------------------------------|
  |-----2-----------2--------2-------------|-----2-----------2--------2--------2----|--3-----0--3-----0--3-----0--3----------|
  |--0-------------------------------------|--0-------------------------------------|-----0----------------------------------|
  |----------------------------------------|----------------------------------------|--0-------------------------------------|

                                                                                                                        |-3-|
     E  E  E  Q     E  E  E  E  E  E  E       E  E  E  Q     E  Q     E  E  E  E       E  E  E  Q     E  Q     E  Q     S S S
  |----------------------------------------|--------------------------------5-------|--0----------------------------------------|
  |--0--------0-----------0--1--3--0-------|--0--------0--------0--------1-----3----|--0--------0--------0--------1-----5p3p1---|
  |--2-----------------2--------------0----|--------2--2--------2--------2----------|--------2--2--------2--------2-------------|
  |--3-----0--3-----0--3-------------------|-----2-----------2--------2-------------|-----2-----------2--------2----------------|
  |-----0----------------------------------|--0-------------------------------------|--0----------------------------------------|
  |--0-------------------------------------|----------------------------------------|-------------------------------------------|

                                      |-3-|                                       |-3-|                                       |-3-|
     E  E  E  Q     E  Q     E  Q     S S S      E  E  E  Q     E  Q     E  Q     S S S      E  E  E  Q     E  Q     E  Q     S S S 
  |-------------------------------------------|-------------------------------------------|-------------------------------------------|
  |--0--------0--------0--------1-----5p3p1---|--0--------0--------0--------1-----5p3p1---|--0--------0--------0--------1-----5p3p1---|
  |--------2--2--------2--------2-------------|--------2--2--------2--------2-------------|--------2--2--------2--------2-------------|
  |-----2-----------2--------2----------------|-----2-----------2--------2----------------|-----2-----------2--------2----------------|
  |--0----------------------------------------|--0----------------------------------------|--0----------------------------------------|
  |-------------------------------------------|-------------------------------------------|-------------------------------------------|

                                      |-3-|                     rall-----> p.h---->                            n.h-->
     E  E  E  Q     E  Q     E  Q     S S S      E  E  E  Q     E  E  E  E  E  E  E       H.                E.  E.  E.  E.
  |-------------------------------------------|--------------------------0-------<0>---|--L-----------------L--<12>----(8)----|
  |--0--------0--------0--------1-----5p3p1---|--0--------0-----------0-------<0>------|--L-----------------L-----------------|
  |--------2--2--------2--------2-------------|--------2--2--------2-------<2>---------|--L-----------------L------<7>--------|
  |-----2-----------2--------2----------------|-----2-----------2----------------------|--L-----------------L-----------------|
  |--0----------------------------------------|--0-------------------------------------|--L-----------------L-----------------|
  |-------------------------------------------|----------------------------------------|--------------------------------------|

    n.h
     W.                                       W.
  |----------------------------------------|--L-------------------------------------||
  |-<12>-----------------------------------|--L-------------------------------------||
  |----------------------------------------|--L-------------------------------------||
  |-<7>------------------------------------|--L-------------------------------------||
  |----------------------------------------|----------------------------------------||
  |----------------------------------------|----------------------------------------||


        
Comments

No comments yet