Gametabs
Home
Tabs
Random

Makura Kouji

Average rating: 5.000

6 ratings

Composer:

Tabber:

Style:

Instrument:

Created: November 18, 2015 at 12:00 AM

            Title: Makura Kouji
SubTitle: Mushishi
Artist: Masuda Toshio
Tabber: Mitch Jackson
Tempo = 65
T/S = 4/4

         
                       
   ♪♫•*¨*•.¸¸ CAPO 3 ¸¸.•*¨*•♫♪ 



     E  E  E  E  H                E  E  E  Q     S S S S S  S      E  E  E  E  H                E  E  E  E  H
E |----------------------------|-----------------------10-------|----------------------------|----------------------------|
B |-----------0--L-------------|-----------0-----7-8-10--10-8---|--7--------0--L-------------|-----------0--L-------------|
G |-----------0--L-------------|-----------0--------------------|-----------0--L-------------|-----------0--L-------------|
D |--------4-------------------|--------4-----------------------|--------4-------------------|--------4-------------------|
A |-----2----------------------|-----2--------------------------|-----2----------------------|-----2----------------------|
E |--0-------------------------|--0-----------------------------|--0-------------------------|--0-------------------------|

                                                     
     E  E  E  H           S T T     E  E  E  Q.       Q          E  E  E  Q.       Q          E  E  E  E  H
  |--7----------------------5h7--|--5-----------------3-------|--2-----------------0-------|----------------------------|
  |-----------0-----------L------|-----------0----------------|-----------0----------------|--0--------0--L-------------|
  |-----------0-----------L------|-----------0----------------|-----------0----------------|-----------0--L-------------|
  |--------4---------------------|--------4-------------------|--------4-------------------|--------4-------------------|
  |-----2------------------------|-----2----------------------|-----2----------------------|-----2----------------------|
  |--0---------------------------|--0-------------------------|--0-------------------------|--0-------------------------|

                                                                               
     E  E  E  Q.       Q          E  E  E  Q.       Q          E  E  E  Q     S S S S S  S      E  E  E  E.  S S S S S S S
  |----------------------------|----------------------------|-----------------------10-------|-------------------10------10--|
  |--3--------1--------1-------|--0--------1----------------|--0--------0-----7-8-10--10-8---|--7--------0-----8---10--8-----|
  |--------0--2----------------|--------0--2--------2-------|-----------0--------------------|-----------0---7-------7-------|
  |----------------------------|----------------------------|--------4-----------------------|--------4----------------------|
  |-----3----------------------|-----3----------------------|-----2--------------------------|-----2-------------------------|
  |--1-------------------------|--1-------------------------|--0-----------------------------|--0----------------------------|

                             
     E  E  E  H           S T T     E  E  E  Q.       Q          E  E  E  Q.       Q          E  E  E  Q  H
  |--7----------------------5h7--|--5-----------------3-------|--2-----------------0-------|----------------------------|
  |--0--------0-----------L------|-----------0----------------|-----------0----------------|--0--------0--L-------------|
  |-----------0-----------L------|-----------0--------0-------|-----------0----------------|-----------0--L-------------|
  |--------4---------------------|--------4-------------------|--4-----4-----------2-------|--------4-------------------|
  |-----2------------------------|-----2----------------------|-----2----------------------|-(2)-2----------------------|
  |--0---------------------------|--0-------------------------|--0-------------------------|--0-------------------------|

                                                                               
     E  E  E  Q.       Q          E  E  E  Q.       Q          E  E  E  Q     S S S S S  S      E  E  E  E  Q     Q
  |----------------------------|----------------------------|-----------------------10-------|--------------------0-------|
  |--3--------1--------1-------|--0--------1----------------|--0--------0-----7-8-10--10-8---|--7--------0--L-------------|
  |--------0--2----------------|--------0--2--------2-------|-----------0--------------------|-----------0--L-------------|
  |--0-------------------------|----------------------------|--------4-----------------------|--------4-------------------|
  |-----3----------------------|-----3----------------------|-----2--------------------------|-----2----------------------|
  |--1-------------------------|--1-------------------------|--0-----------------------------|--0-------------------------|
                                      

     E  E  E  Q.       E.  T T     E  E  E  Q.       E  E       E  E  E  Q.       E.  T T     E  E  E  Q.       Q
  |--7--------0--------5---3h5--|--0--------0--------2--3----|--5--------3--------3---5p3--|-----------3--------3-------|
  |--------0--------------------|-----------1----------------|-----------0-----------------|--3--------0----------------|
  |-----------5-----------------|--------4-------------------|--------0--------------------|--------0-------------------|
  |-----2-----------------------|-----2----------------------|-----0-----------------------|-----0----------------------|
  |--0--------------------------|--0-------------------------|--2--------------------------|--2-------------------------|
  |-----------------------------|----------------------------|-----------------------------|----------------------------|

                                                                                             ^
     E  E  E  Q.       E.  T T     E  E  E  Q.       E  E       E  E  E  Q.       Q          H.                 Q
  |--7--------0--------5---3h5--|--0--------0--------2--3----|--5--------5----------------|--2------------------3-------|
  |--------3--------------------|--------3-------------------|-----------5--------8-------|-----------------------------|
  |-----0-----5-----------------|-----0-----5----------------|--------7-------------------|--2--------------------------|
  |-----------------------------|----------------------------|-----7----------------------|--0--------------------------|
  |--3--------------------------|--3-------------------------|--5-------------------------|--0--------------------------|
  |-----------------------------|----------------------------|----------------------------|-----------------------------|


     E  E  E  E.  S S S S S S S      E  E  E  Q     S S S S S  S      E  E  E  E  H                E  E  E  Q     S S S S S  S
  |--0--------5---------0---------|-----------------------10-------|-----------5--L-------------|-----------------------10-------|
  |-----------0-------0-------0---|-----------0-----7-8-10--10-8---|--7--------0--L-------------|-----------0-----7-8-10--10-8---|
  |-----------0-----2-------2-----|-----------0--------------------|-----------0--L-------------|-----------0--------------------|
  |--------4------2-------2-------|--------4-----------------------|--------4-------------------|--------4-----------------------|
  |-----2-------------------------|-----2--------------------------|-----2----------------------|-----2--------------------------|
  |--0----------------------------|--0-----------------------------|--0-------------------------|--0-----------------------------|

                                                     
     S S S S S S S S S S S S S S S S      E  E  E  Q     S S S S S  S      E  E  E  E  H                E  E  E  Q     S S S S S  S
  |--------7-12----7-12----7-12----7---|-----------------------10-------|-----------5--L-------------|-----------------------10-------|
  |--7---10------10------10------10----|-----------0-----7-8-10--10-8---|--7--------0--L-------------|-----------0-----7-8-10--10-8---|
  |----9-------9-------9-------9-------|-----------0--------------------|-----------0--L-------------|-----------0--------------------|
  |------------------------------------|--------4-----------------------|--------4-------------------|--------4-----------------------|
  |------------------------------------|-----2--------------------------|-----2----------------------|-----2--------------------------|
  |--0---------------------------------|--0-----------------------------|--0-------------------------|--0-----------------------------|

                                                                                                      RALL          P.H.-->
     S S S S S S S S S S S S S S S S      E  E  E  Q     S S S S S  S      E  E  E  E  H                E  E  E  E.  S S S S S S S
  |----------7-------7-------7---------|-----------------------10-------|-----------5--L-------------|--------------------<0>---<2>---|
  |--7-----7-------7-------7-------7---|-----------0-----7-8-10--10-8---|--7--------0--L-------------|------------------<0>---<2>-----|
  |------9-------9-------9-------9-----|-----------0--------------------|-----------0--L-------------|-----------0----<2>---<2>-------|
  |----9-------9-------9-------9-------|--------4-----------------------|--------4-------------------|--------4-----<2>---------------|
  |------------------------------------|-----2--------------------------|-----2----------------------|-----2--------------------------|
  |--0---------------------------------|--0-----------------------------|--0-------------------------|--0-----------------------------|

   2/4            4/4 ^ N.H
     H                W                            W                             
  |----------------|-<12>-----------------------|--L-------------------------||
  |--L-------------|-<12>-----------------------|--L-------------------------||
  |--L-------------|--9L------------------------|--L-------------------------||
  |--L-------------|--9L------------------------|--L-------------------------||
  |----------------|----------------------------|----------------------------||
  |----------------|----------------------------|----------------------------||


        
Comments

@thedstring (November 19, 2015 at 12:58 AM)

Fantastic! Favorited!