Gametabs
Home
Tabs
Random

To Shinju Forest

Average rating: No ratings

Composer:

Tabber:

Style:

Instrument:

Created: November 02, 2011 at 12:00 AM

            To Shinju Forest (Stage 1)
Mushihimesama 
Composer: Manabu Namiki
Tabbed by Bacardibreezer
10/30/11

Lead

Rest 10 measures

e|-------------------|----------------------------------------------------------|
B|-------------------|-----------11---------------------------------------------|
G|--------10-12------|--------------13h15p13-12-12---13-12----------------------|
D|--10-13-------10~--|--10-13-10-----------------------------13--12---13h12-----|
A|-------------------|------------------------------------------------------13--|
E|-------------------|----------------------------------------------------------|

e|------------------------|-------------------------------------|----------------------------------|
B|------------------------|-----------------------11------------|-------12--------------12-14------|
G|-----------10-12--------|----------10----------------13-13-11-|-13h15----15--13----15-------15---|
D|--10-12-13-------10-13--|--12--13------13--12-----------------|----------------------------------|
A|------------------------|-------------------------------------|----------------------------------|
E|------------------------|-------------------------------------|----------------------------------|

e|-----------|-------------------------------------------------------|
B|-----------|-----------11------------------------------------------|
G|---12------|--------------13-13-12-12---13-12----------------------|
D|------10~--|--10-13-10--------------------------13--12---13h12-----|
A|-----------|---------------------------------------------------13--|
E|-----------|-------------------------------------------------------|

e|------------------------|-------------------------------------|-----------------------------13-12--|
B|------------------------|-----------------------11------------|-------12--------------12-14--------|
G|-----------10-12--------|----------10----------------13-13-11-|-13h15----15--13----15--------------|
D|--10-12-13-------10-13--|--12--13------13--12-----------------|------------------------------------|
A|------------------------|-------------------------------------|------------------------------------|
E|------------------------|-------------------------------------|------------------------------------|

e|-------------------|-----------------------------------|
B|--------------12~--|--12-------------------------------|
G|------13-----------|------14--12--11--12-14--11--------|
D|----------14-------|-----------------------------12~---|
A|--14---------------|-----------------------------------|
E|-------------------|-----------------------------------|

e|--------------------------------------------------|
B|--------------------------------------------------|
G|--------------------------------12----------15~---|
D|---14~-----------14-16----12----------13----------|
A|---------12--15-----------------------------------|
E|--------------------------------------------------|

e|-------------------|------------------12---|
B|--------------14~--|--14--12------12-------|
G|-------15----------|----------14-----------|
D|--13-------16------|-----------------------|
A|-------------------|-----------------------|
E|-------------------|-----------------------|

e|------------------------------------------------------|
B|------------------------------9-----10----12----10~---|
G|---9----11~----------------11----9--------------------|
D|------------------9----12-----------------------------|
A|------------------------------------------------------|
E|------------------------------------------------------|

e|--------------------|--------------------------------------------|
B|-----------12-------|--------------------------------------------|
G|---------------14~--|--12-11-------------------------12--11------|
D|------12------------|--------14----------12----14-----------12---|
A|--12----------------|--------------12----------------------------|
E|--------------------|--------------------------------------------|

e|-------------------------------------------14-----15-14-12---|
B|-----------15--14----------12-----12----12-------------------|
G|---------------------14--------------14----------------------|
D|--11--12-----------------------------------------------------|
A|-------------------------------------------------------------|
E|-------------------------------------------------------------|

e|--------------------|--------------------------------------------|
B|-----------12-------|--------------------------------------------|
G|---------------14~--|--12-11-------------------------12--11------|
D|------12------------|--------14----------12----14-----------12---|
A|--12----------------|--------------12----------------------------|
E|--------------------|--------------------------------------------|

e|-------------------------------------------14-----15-14-12---14-15-17--|
B|-----------15--14----------12-----12----12-----------------------------|
G|---------------------14--------------14--------------------------------|
D|--11--12---------------------------------------------------------------|
A|-----------------------------------------------------------------------|
E|-----------------------------------------------------------------------|


        
Comments

No comments yet