Gametabs
Home
Tabs
Random

Fallin' Love

Average rating: 5.000

12 ratings

Composer:

Tabber:

Style:

Instrument:

Created: July 18, 2012 at 12:00 AM

            Fallin' Love                                   
~Mother~
Composed By: Hirokazu Tanaka, Keiichi Suzuki 
Arranged By: Justin Lincoln

Drop D Tuning

     E   E   E  E   E   E   E  E      E  E   E  E   E  E   E  E   
E||-------------0---L----------0--|---L---------0---L---------0--|
B||-----10-------------10---------|------9-------------9---------|
G||---------11-------------11-----|---------11------------11-----|
D||----------------11-------------|----------------11------------|
A||--9----------------------------|--11--------------------------|
D||-------------------------------|------------------------------|
     mp

  E   E   E  E   E   E   E  E     E  E   E  E   E  E   E  E   
--L----------0---L----------0--|--L---------0---L---------0--|
-----10-------------10---------|-----9-------------9---------|
---------11-------------11-----|--------11------------11-----|
----------------11-------------|-----------------------------|
--9----------------------------|--7--------------------------|
-------------------------------|---------------11------------|

1st Ending ------------------------
  Q    Q    Q    Q       H        Q    Q       H        Q    Q     
--L-------------------|---------------------|----------------0----|
-----------------0----|--2------------------|---------------------|
------------2---------|--1--------1---------|-----------2---------|
-------4----0---------|-----------2----2----|--4--------0---------|
----------------------|---------------------|---------------------|
--0-------------------|--2------------------|--0------------------|


  H        H           Q    Q    Q    Q       H        Q    Q     
--------------------|----------------------|---------------------|
--2-----------------|-----------------0----|--2------------------|
--1-----------------|------------2---------|--1--------1---------|
-----------2--------|-------4----0---------|-----------2----2----|
--------------------|----------------------|---------------------|
--2-----------------|--0-------------------|--2------------------|


  H        Q    Q       H        H           Q    Q    Q    Q     
----------------0----|--------------------|----------------------|
---------------------|--2-----------------|-------2----2----0----|
-----------2---------|--1-----------------|----------------------|
--4--------0---------|-----------2--------|------------0---------|
---------------------|--------------------|----------------------|
--0------------------|--2-----------------|--0-------------------|


  Q    Q    Q    Q       Q    Q    Q    Q       Q    Q    Q    Q     
--0-------------------|----------------------|----------------------|
-------3----2----0----|--L----2----2----0----|--2--------------0----|
--1-------------------|----------------------|--1----1----2---------|
------------2---------|------------0---------|------------2---------|
----------------------|----------------------|----------------------|
--2-------------------|--0-------------------|--2-------------------|


  Q    Q    Q    Q       Q    Q    Q    Q       Q    Q    Q    Q     
----------------------|--0-------------------|----------------------|
--L----2----2----0----|-------3----2----0----|--L----2----2----0----|
----------------------|--1-------------------|----------------------|
------------0---------|------------2---------|------------0---------|
----------------------|----------------------|----------------------|
--0-------------------|--2-------------------|--0-------------------|


                        2nd Ending --------         ^                     
  H        H             E  E  E  E  E  E  E  E     H        E  E  E  E   
---------------------||--------------------------|-----------------------|
--2------------------||--------------------0-----|--2--------------------|
--1--------1--------*||--------------2-----------|--1--------1-----------|
--------------------*||--------4-----------------|-----------------2-----|
---------------------||-----0-----0-----0-----0--|-----------------------|
--2------------------||--0-----------------------|--2-----------2-----2--|
                       F

    E  E  E  E  E  E  E  E     E  E  E  E  E  E  E  E   
----------------------0-----|--------------------------|
----------------------------|--2-----0-----------------|
----------------2-----------|-----1-----1--2--1--------|
--2g4--------4-----------0--|--------------------2-----|
----------0--------0--------|--------------------------|
-------0--------------------|--2--------------------2--|


                             ^                                                  
  E  E  E  E  E  E  E  E     H        E  E  E  E       E  E  E  E  E  E  E  E   
--------------------------|-----------------------|----------------------0-----|
--------------------0-----|--2--------------------|----------------------------|
--------------2-----------|--1--------1-----------|----------------2-----------|
--------4-----------------|-----------------2-----|--2g4--------4-----------0--|
-----0-----0-----0-----0--|-----------------------|----------0--------0--------|
--0-----------------------|--2-----------2-----2--|-------0--------------------|


  E  E  E  E  E  E  E  E     E  E  Q    E  E  E  E     E  E  E  E  Q    E  E   
--------------------0-----|--2----------------------|--0----------------------|
--2-----0-----2-----------|--------2----2-----0-----|--------3-----2----0-----|
-----1-----1-----1-----1--|-------------------------|-----1----------------1--|
--------------2-----------|--------0-------0--------|--------------2----------|
--------------------------|-----0----------------0--|-----------2-------------|
--2-----------------------|--0----------------------|--2----------------------|


  E  E  E  E  Q    E  E     E  E  Q    E  E  E  E     E  E  Q    E  E  E  E   
-------------------------|-------------------------|--2----------------------|
--------2-----2----0-----|--2----------------0-----|--------2----2-----0-----|
-------------------------|--------1----2-----------|-------------------------|
--------------0----------|----------------2--------|--------0-------0--------|
-----0-----0----------0--|----------------------2--|-----0----------------0--|
--0----------------------|-----2-------------------|--0----------------------|


  E  E  E  E  Q    E  E     E  E  E  E  Q    E  E     E  E  Q    E  E  E   E   
--0----------------------|-------------------------|--------------------------|
--------3-----2----0-----|--------2-----2----0-----|--2-----------------------|
-----1----------------1--|-------------------------|--------1----2--1---------|
--------------2----------|--------------0----------|-------------2-----2p--0--|
-----------2-------------|-----0-----0----------0--|--------------------------|
--2----------------------|--0----------------------|-----2--------------------|


  ^                                        
  H         H           W                  
---------------------|-------------------||
---------------------|-------------------||
--2---------L--------|--L----------------||
---------------------|-------------------||
--4p--------0--------|--L----------------||
--0------------------|--0----------------||
Decrescendo------------ppp


Duration Legend
---------------
W - whole
H - half
Q - quarter
E - 8th
S - 16th
T - 32nd
X - 64th
. - note dotted
|-n-|  - n-tuplets


Tablature Legend
----------------
L - tied note
g - grace note
^ - brush up
v - brush down
mp - slightly soft
f - loudly
ppp - very softly

        
Comments

@Ennea (July 18, 2012 at 12:07 PM)

Such a beautiful tune


@ChelseaRare (July 18, 2012 at 1:55 PM)

Love i t


@Lemoncobbler (July 19, 2012 at 9:04 PM)

its perfect


@coobs (June 22, 2018 at 12:26 AM)

This one instantly became one of my favorites.