Gametabs
Home
Tabs
Random

The Tomb (Genesis)

Average rating: No ratings

Composer:

Tabber:

Style:

Instrument:

Created: January 18, 2010 at 12:00 AM

            Mortal Kombat II - The Tomb (Mega Drive)
Tabbed by LTRobson Jan 2010

Standard tuning

|------------------------------------------------------------------------------|
|------------------------------------------------------------11----13-11----10-|
|-----5-----3------------------5-----3-----------------10-12-------------12----|
|-------4-----1---4---1----------4-----1---4---1----10-------------------------|
|-3-----------------3---1--3-----------------3---1-----------------------------|
|------------------------------------------------------------------------------|

|------------------------------------------------------------------------------|
|------------------------------------------------------------11----13-11----10-|
|-----5-----3------------------5-----3-----------------10-12-------------12----|
|-------4-----1---4---1----------4-----1---4---1----10-------------------------|
|-3-----------------3---1--------------------3---1-----------------------------|
|------------------------------------------------------------------------------|

|---------------------------------------------------------------------------|
|---------------------------------------------------------------------------|
|-----5-----3------------------5-----3------------------6-----4-------------|
|-------4-----1---4---1----------4-----1---4---1----------5-----2---5---2---|
|-3-----------------3---1--------------------3---1--4-----------------4---2-|
|---------------------------------------------------------------------------|

|--------------------------------------------------|
|--------------------------------------------------|
|-----5-----3------------------5-----3-------------|
|-------4-----1---4---1----------4-----1---4---1---|
|-3-----------------3---1--------------------3---1-|
|--------------------------------------------------|

|-----------9------8----------------------------------------|
|-11---10------------11-8----11-8---------------------------|
|-------------------------11------10-7----------------------|
|--------------------------------------11-10-8----8---------|
|----------------------------------------------10---10-8----|
|--------------------------------------------------------10-|

        
Comments

No comments yet