Gametabs
Home
Tabs
Random

Main Theme

Average rating: 5.000

3 ratings

Composer:

Tabber:

Style:

Instrument:

Created: May 27, 2009 at 12:00 AM

                           Monty On The Run - Main Theme GUITAR & BASS TAB
                             Song by Rob Hubbard
  
                   Tabbed by auriplane ([email protected])
                               On May 27, 2009

  
                                 GUITAR PART

A few places in this guitar part have doubled-up bars, because there's
two voices there, so you'd play the lower one on a second guitar.  But
most of the time, it's just one melody, which is why I didn't give the
second guitar its own section.

Scroll down for bass part.


    Intro

    0:00 - 0:10         
e |------------------------15------|--------------------------------|
B |15------16------15--------------|15------16------15--------------|
G |--------------------------------|------------------------12------|
D |--------------------------------|--------------------------------|
A |--------------------------------|--------------------------------|
E |--------------------------------|--------------------------------|

   0:10-0:20
e |--------------------------------|--------------------------------|
B |--------------------------------|--------6-----6---------8---\0--|
G |--------7-----7-6-----6-9-------|7-----7---------9-----9---------|
D |8-----8-------------------------|--------------------------------|
A |--------------------------------|--------------------------------|
E |--------------------------------|--------------------------------|
  |                                                                 |
e |--------------------------------|--------------------------------|
B |--------------------------------|--------------------------------|
G |--------------------------------|--------7-----7-6-----6-9---\0--|
D |--------8-----8-7-----7-10------|8-----8-------------------------|
A |10----10------------------------|--------------------------------|
E |--------------------------------|--------------------------------|
   
   0:20-0:35
e |--------------------------------|------------------------8--/16-\|
B |--------8-----8-7-----7-10------|8-----8-11---11-10---10---------|
G |8-----8-------------------------|--------------------------------|
D |--------------------------------|--------------------------------|
A |--------------------------------|--------------------------------|
E |--------------------------------|--------------------------------|
  |                                                                 |
e |--------------------------------|--------------------------------|
B |------------------------7-------|--------8-----8-7----7-10--/20-\|
G |--------8-----8-7-----7---------|8-----8-------------------------|
D |10----10------------------------|--------------------------------|
A |--------------------------------|--------------------------------|
E |--------------------------------|--------------------------------|

    Part A (0:35)

   E   S S E   E   E   E   E   E    E   S S E   E   E   E   E   E
e |--------------------------------|--------------------------------|
B |--------------------------------|----------------------------10--|
G |----------------12--------------|----------------12--11--12------|
D |----121211--12------12--11--12--|----121211--12------------------|
A |10------------------------------|10------------------------------|
E |--------------------------------|--------------------------------|

   E   S S E   E   E   S S S   E    W                              
e |----------------11--131110------|10------------------------------|
B |11--131110------------------13--|--------------------------------|
G |------------12------------------|--------------------------------|
D |--------------------------------|--------------------------------|
A |--------------------------------|--------------------------------|
E |--------------------------------|--------------------------------|

   E   S S E   E   E   E   E   E    E   S S E   E   E   E   E   E
e |--------------------------------|--------------------------------|
B |--------------------------------|----------------------------10--|
G |----------------12--------------|----------------12--11--12------|
D |----121211--12------12--11--12--|----121211--12------------------|
A |10------------------------------|10------------------------------|
E |--------------------------------|--------------------------------|

   E   S S E   E   E   S S S   E    E   E   E   E   H              
e |----------------11--131110------|------------10------------------|
B |11--131110------------------13--|11--131110----------------------|
G |------------12------------------|----------------12--------------|
D |--------------------------------|--------------------------------|
A |--------------------------------|--------------------------------|
E |--------------------------------|--------------------------------|

    0:46

   W                                Q       S S S S E   E   E   E  
e |--------------------------------|--------------------------------|
B |--------------------------------|--------1615161516--18--16--15--|
G |17------------------------------|L-------------------------------|
D |--------------------------------|--------------------------------|
A |--------------------------------|--------------------------------|
E |--------------------------------|--------------------------------|

   W                                Q       S S S S E   E   E   E  
e |--------------------------------|--------------------------------|
B |--------------------------------|--------1615161516--18--16------|
G |17------------------------------|L---------------------------17--|
D |--------------------------------|--------------------------------|
A |--------------------------------|--------------------------------|
E |--------------------------------|--------------------------------|

   W                                Q       S S S S E   E   E   E  
e |--------------------------------|--------1514151415--17--15--14--|
B |17------------------------------|L-------------------------------|
G |--------------------------------|--------------------------------|
D |--------------------------------|--------------------------------|
A |--------------------------------|--------------------------------|
E |--------------------------------|--------------------------------|

   W                                Q       S S S S E   E   E   E  
e |--------------------------------|--------1514151415--17--15------|
B |17------------------------------|L---------------------------17--|
G |--------------------------------|--------------------------------|
D |--------------------------------|--------------------------------|
A |--------------------------------|--------------------------------|
E |--------------------------------|--------------------------------|

    0:56

   E   E   E   E   E   E   E   E    E   E   E   E   E   E   E   E   
e |--------------------------------|--------------------------------|
B |--------------------------------|--------------------------------|
G |--------------------------------|--------------------17--16--14--|
D |--------------------15--14--12--|--------------------------------|
A |--------------------------------|12--15--14--15--12--------------|
E |10--13--12--13--10--------------|--------------------------------|

   E   E   E   E   E   E   E   E    E   E   E   E   E   E   E   E   
e |--------------------------------|18--17--15----------------------|
B |--------------------16--15--13--|--------------------------------|
G |--------------------------------|------------15--14--12----------|
D |10--13--12--13--10--------------|--------------------------------|
A |--------------------------------|------------------------13--12--|
E |--------------------------------|--------------------------------|

   E   E   E   E   E   E   E   E    E   E   E   E   E   E   E   E   
e |--------------------------------|--------------------------------|
B |--------------------------------|--------------------------------|
G |--------------------------------|--------------------17--16--14--|
D |--------------------15--14--12--|--------------------------------|
A |--------------------------------|12--15--14--15--12--------------|
E |10--13--12--13--10--------------|--------------------------------|

   E   E   E   E   E   E   E   E    E   E   E   E   E   E   E   E   
e |--------------------------------|----------------------------9---|
B |--------------------16--15--13--|------------------------11------|
G |--------------------------------|9---12--11--12--9---12----------|
D |10--13--12--13--10--------------|--------------------------------|
A |--------------------------------|--------------------------------|
E |--------------------------------|--------------------------------|

   E   Q       Q       Q       E    E                               
e |10--10------11------10------8---|10------------------------------|
B |--------------------------------|--------------------------------|
G |--------------------------------|--------------------------------|
D |--------------------------------|--------------------------------|
A |--------------------------------|--------------------------------|
E |--------------------------------|--------------------------------|
  |                                                                 |
e |--------------------------------|--------------------------------|
B |7---7-------8-------7-----------|--------------------------------|
G |----------------------------8---|7-------------------------------|
D |--------------------------------|--------------------------------|
A |--------------------------------|--------------------------------|
E |--------------------------------|--------------------------------|

    Now, repeat Part A.

    Part B (1:42)

   Q.          S S E   E   E   E    Q.          E   Q       S S S S
e |--------------------11----------|------------------------11131413|
B |11----------111314------14--13--|11--------------11--------------|
G |--------------------------------|------------14------------------|
D |--------------------------------|--------------------------------|
A |--------------------------------|--------------------------------|
E |--------------------------------|--------------------------------|

   S S E   S S S S E   E   E   E    E   Q.          H              
e |141311----------11--------------|--------------------------------|
B |----------111314----14--13--11--|----11--------------------------|
G |--------------------------------|14------------------------------|
D |--------------------------------|--------------------------------|
A |--------------------------------|--------------------------------|
E |--------------------------------|--------------------------------|

   Q.          S S E   E   E   E    Q.          E   Q       S S S S
e |--------------------12----------|------------------------12141514|
B |12----------121415------15--14--|12--------------12--------------|
G |--------------------------------|------------15------------------|
D |--------------------------------|--------------------------------|
A |--------------------------------|--------------------------------|
E |--------------------------------|--------------------------------|

   S S E   S S S S E   E   E   E    E   Q.          H              
e |151412----------12--------------|--------------------------------|
B |----------121415----15--14--12--|----12--------------------------|
G |--------------------------------|15------------------------------|
D |--------------------------------|--------------------------------|
A |--------------------------------|--------------------------------|
E |--------------------------------|--------------------------------|

   Q.          E   Q       E   E    Q.          E   H              
e |--------------------------------|--------------------------------|
B |--------------------------------|--------------------------------|
G |10------------------------------|--------------------------------|
D |------------13--12------10------|10----------12--10--------------|
A |----------------------------14--|--------------------------------|
E |--------------------------------|--------------------------------|

   Q.          E   Q       E   E    W                              
e |--------------------------------|--------------------------------|
B |--------------------------------|--------------------------------|
G |10------------------------------|--------------------------------|
D |------------13--12------10------|10------------------------------|
A |----------------------------14--|--------------------------------|
E |--------------------------------|--------------------------------|

   Q.          S S E   E   E   E    Q.          S S E   E   E   E    
e |--------------------13----------|--------------------14----------|
B |13----------131516------16--15--|14----------141617------17--16--|
G |--------------------------------|--------------------------------|
D |--------------------------------|--------------------------------|
A |--------------------------------|--------------------------------|
E |--------------------------------|--------------------------------|

   E   S S E   E   E   E   E   E    E   S S E   E   E   E   E   E    
e |--------------------------------|--------------------------------|
B |15--151718--17--15------15------|--------------------------------|
G |--------------------18------17--|15--151718--17--15------15--17--|
D |--------------------------------|--------------------19----------|
A |--------------------------------|--------------------------------|
E |--------------------------------|--------------------------------|

   E   Q       Q       Q       E    E                               
e |--------------------------------|--------------------------------|
B |15--15------16------15----------|15------------------------------|
G |----------------------------17--|--------------------------------|
D |--------------------------------|--------------------------------|
A |--------------------------------|--------------------------------|
E |--------------------------------|--------------------------------|
  |                                                                 |
e |--------------------------------|--------------------------------|
B |7---7-------8-------7-----------|--------------------------------|
G |----------------------------8---|7-------------------------------|
D |--------------------------------|--------------------------------|
A |--------------------------------|--------------------------------|
E |--------------------------------|--------------------------------|

    Part C (2:05)

   (Same as intro, two guitars, except the bass is different here)
e |--------------------------------|--------------------------------|
B |--------------------------------|--------6-----6---------8---\0--|
G |--------7-----7-6-----6-9-------|7-----7---------9-----9---------|
D |8-----8-------------------------|--------------------------------|
A |--------------------------------|--------------------------------|
E |--------------------------------|--------------------------------|
  |                                                                 |
e |--------------------------------|--------------------------------|
B |--------------------------------|--------------------------------|
G |--------------------------------|--------7-----7-6-----6-9---\0--|
D |--------8-----8-7-----7-10------|8-----8-------------------------|
A |10----10------------------------|--------------------------------|
E |--------------------------------|--------------------------------|
  
   
e |--------------------------------|------------------------8--/16--|
B |--------8-----8-7-----7-10------|8-----8-11---11-10---10---------|
G |8-----8-------------------------|--------------------------------|
D |--------------------------------|--------------------------------|
A |--------------------------------|--------------------------------|
E |--------------------------------|--------------------------------|
  |                                                                 |
e |--------------------------------|--------------------------------|
B |------------------------7-------|--------8-----8-7----7-10--/20--|
G |--------8-----8-7-----7---------|8-----8-------------------------|
D |10----10------------------------|--------------------------------|
A |--------------------------------|--------------------------------|
E |--------------------------------|--------------------------------|


   2:26 - the same as Part A

   E   S S E   E   E   E   E   E    E   S S E   E   E   E   E   E
e |--------------------------------|--------------------------------|
B |--------------------------------|----------------------------10--|
G |----------------12--------------|----------------12--11--12------|
D |----121211--12------12--11--12--|----121211--12------------------|
A |10------------------------------|10------------------------------|
E |--------------------------------|--------------------------------|

   E   S S E   E   E   S S S   E    W                              
e |----------------11--131110------|10------------------------------|
B |11--131110------------------13--|--------------------------------|
G |------------12------------------|--------------------------------|
D |--------------------------------|--------------------------------|
A |--------------------------------|--------------------------------|
E |--------------------------------|--------------------------------|

   E   S S E   E   E   E   E   E    E   S S E   E   E   E   E   E
e |--------------------------------|--------------------------------|
B |--------------------------------|----------------------------10--|
G |----------------12--------------|----------------12--11--12------|
D |----121211--12------12--11--12--|----121211--12------------------|
A |10------------------------------|10------------------------------|
E |--------------------------------|--------------------------------|

   E   S S E   E   E   S S S   E    E   E   E   E   H              
e |----------------11--131110------|------------10------------------|
B |11--131110------------------13--|11--131110----------------------|
G |------------12------------------|----------------12--------------|
D |--------------------------------|--------------------------------|
A |--------------------------------|--------------------------------|
E |--------------------------------|--------------------------------|

    Part D (2:36)

    During this part, the bass keeps repeating the same pattern, and
    the guitar solos over it.  The bass pattern is eight measures long,
    and repeats 13 times; the guitar plays for 8 of the 13 repeats, 
    resting for eight bars at the start and thirty-two at the end.

   2:46
e |----------------|----------------|----------------|----------------|
B |----------------|----------------|----------------|----------------|
G |----------------|----------------|----------------|------------1012|
D |12--------------|--------10b12---|12--------------|----------12----|
A |----------------|----------------|----------------|----------------|
E |----------------|----------------|----------------|----------------|
                                                      
e |----------------|----------------|----------------|----------------|
B |----------------|----------------|----------------|----------------|
G |12--------------|----------------|----------------|----------------|
D |----------------|--------10b12---|12--------------|------------1012|
A |----------------|----------------|----------------|----------12----|
E |----------------|----------------|----------------|----------------|
                                                    
   2:56                                             
e |----------------|----------------|----------------|----------------| \
B |----------------|----------------|----------------|----------------|  |
G |-------10b12----|12------12r10---|----------------|----------10s12-|  |
D |12--------------|----------------|12--------------|--------12------|  |
A |----------------|----------------|----------------|----------------|  |
E |----------------|----------------|----------------|----------------|  |
                                                                         | x2
e |----------------|----------------|----------------|----------------|  |
B |----------------|----------------|----------------|----------------|  |
G |10-----12b13----|12------12r10---|----------------|----------------|  |
D |----------------|----------------|12--------------|----------10s12-|  |
A |----------------|----------------|----------------|--------12------|  |
E |----------------|----------------|----------------|----------------| /

   3:17
e |----------------|----------------|----------------|----------------|
B |----1013--------|----------------|1013------------|----------------|
G |----------------|12b13r12----10--|----------------|12b13r12----10--|
D |12--------------|--------------12|----------------|--------------12|
A |----------------|----------------|----------------|----------------|
E |----------------|----------------|----------------|----------------|
                                                     
e |----10--10------|----------------|----------------|----------------|
B |1013--13----1310|----------------|13b15-----------|----------151315|
G |----------------|12b13r12----10--|----------------|----------------|
D |----------------|--------------12|----------------|----------------|
A |----------------|----------------|----------------|----------------|
E |----------------|----------------|----------------|----------------|
                                                 
   3:27                                          
e |----------------|----------------|15r13-----------|------------1315| \
B |151513/-151513/-|151513/-151513/-|----------------|----------15----|  |
G |----------------|----------------|----------------|----------------|  |
D |----------------|----------------|----------------|----------------|  |
A |----------------|----------------|----------------|----------------|  |
E |----------------|----------------|----------------|----------------|  |
                            S S S                                        | x2
e |151513/-151513/-|172017\-15---------|-------------|----------------|  |
B |----------------|----------1815---15|15-------b17-|----------15--15|  |
G |----------------|---------------17--|-------------|------------17--|  |
D |----------------|-------------------|-------------|----------------|  |
A |----------------|-------------------|-------------|----------------|  |
E |----------------|-------------------|-------------|----------------| /
                                                 
   3:47                                          
e |22-22-20/---22-22-20/---|
B |------------------------|
G |------------------------| x8
D |------------------------|
A |------------------------|
E |------------------------|
                                                      
   3:58                                          
e |17h20p17h20p17h20p17h20p|
B |------------------------|
G |------------------------| x6
D |------------------------|
A |------------------------|
E |------------------------|
    
   4:05
e |16p15p13----15p13-------------------------------|
B |---------15-------15p13-15p13-------------------|
G |------------------------------14p12-13p12p10----|
D |---------------------------------------------12-|
A |------------------------------------------------|
E |------------------------------------------------|
                                                
   4:07                                             
e |---------------------------------------------|
B |---------------------------------------------|
G |12p10----------------------------------------|
D |------12p10-12p10----------------------------|
A |------------------12p10-11p10p8----10p8------|
E |--------------------------------10------10p8-|
                                                      
    Rest for 32 measures here.

    Part E (4:49)

   E   S S E   E   E   E   E   S S  E   E   E   E   E   E   E   E
e |--------------------------------|--------------------------------|
B |--------------------------------|----11--10--11------11--10--11--|
G |7---109-7---10--9---7---10--9-7-|7---------------7---------------|
D |--------------------------------|--------------------------------|
A |--------------------------------|--------------------------------|
E |--------------------------------|--------------------------------|

   E   S S E   E   E   E   E   S S  E   E   E   E   E   E   E   E
e |--------------------------------|--------------------------------|
B |--------------------------------|----11--10--11------11--10--11--|
G |9---12109---12--10--9---12--109-|9---------------9---------------|
D |--------------------------------|--------------------------------|
A |--------------------------------|--------------------------------|
E |--------------------------------|--------------------------------|

   E   S S E   E   E   E   E   S S  E   E   E   E   E   E   E   E
e |--------------------------------|--------------------------------|
B |--------------------------------|----11--10--11------11--10--11--|
G |7---109-7---10--9---7---10--9-7-|7---------------7---------------|
D |--------------------------------|--------------------------------|
A |--------------------------------|--------------------------------|
E |--------------------------------|--------------------------------|

   E   E   E   E   E   E   E   E    E   E   E   E   E   E   E   E
e |--------------------------------|--------------------------------|
B |10--9---10--11--10--8-----------|------------8-------------------|
G |------------------------10--9---|10--9---10------10--9---7-------|
D |--------------------------------|----------------------------11--|
A |--------------------------------|--------------------------------|
E |--------------------------------|--------------------------------|

   4:59
   E   S S E   E   E   E   E   S S  E   E   E   E   E   E   E   E
e |--------------------------------|--------------------------------|
B |--------------------------------|----11--10--11------11--10--11--|
G |7---109-7---10--9---7---10--9-7-|7---------------7---------------|
D |--------------------------------|--------------------------------|
A |--------------------------------|--------------------------------|
E |--------------------------------|--------------------------------|

   E   S S E   E   E   E   E   S S  E   E   E   E   E   E   E   E
e |--------------------------------|----10--9---10------10--9---10--|
B |8---11108---11--10--8---11--108-|8---------------8---------------|
G |--------------------------------|--------------------------------|
D |--------------------------------|--------------------------------|
A |--------------------------------|--------------------------------|
E |--------------------------------|--------------------------------|

   E   S S E   E   S S E   E   E    E   S S E   E   S S E   E   E
e |9---12109---12--109-12--10--12--|12--151312--15--131215--13--15--|
B |--------------------------------|--------------------------------|
G |--------------------------------|--------------------------------|
D |--------------------------------|--------------------------------|
A |--------------------------------|--------------------------------|
E |--------------------------------|--------------------------------|

   E   S S E   E   S S E   E   E    S S S S S S S S S S S S S S S S
e |15--181715--18--171518--17--15--|20212018171817------------------|
B |--------------------------------|--------------2018201817--------|
G |--------------------------------|------------------------18141618|
D |--------------------------------|--------------------------------|
A |--------------------------------|--------------------------------|
E |--------------------------------|--------------------------------|

    Now, repeat all of Part E.

    Part F (5:30)

   S S S S S S S S E   S S E   S S  S S S S S S S S E   S S E   S S   \
e |--------------------131212--9-10|129---9-129---9-12--151313------|  |
B |1510--101510--1015--------------|----10------10--------------1517|  |
G |--------------------------------|--------------------------------|  |
D |----15------15------------------|--------------------------------|  |
A |--------------------------------|--------------------------------|  |
E |--------------------------------|--------------------------------|  |
                                                                       | x2
   S S S S S S S S E   S S E   S S  S S S S S S S S S S S S S S S S    |
e |--------------------171515------|----------------181517181615----|  |
B |1815--151815--1518----------1718|2017--172017--17------------1714|  |
G |----14------14------------------|----18------18------------------|  |
D |--------------------------------|--------------------------------|  |
A |--------------------------------|--------------------------------|  |
E |--------------------------------|--------------------------------| /

    5:40
   S S S S S S S S S S S S S S S S  S S S S S S S S S S S S S S S S 
e |--------------------------------|--------------------------------|
B |1510--101510--101510--101510--10|1511--111511--111511--111511--11|
G |--------------------------------|----12------12------12------12--|
D |----15------15------15------15--|--------------------------------|
A |--------------------------------|--------------------------------|
E |--------------------------------|--------------------------------|

   S S S S S S S S S S S S S S S S  S S S S S S S S S S S S S S S S 
e |129---9-129---9-129---9-129---9-|1310--101310--101310--101310--10|
B |----10------10------10------10--|--------------------------------|
G |--------------------------------|----14------14------14------14--|
D |--------------------------------|--------------------------------|
A |--------------------------------|--------------------------------|
E |--------------------------------|--------------------------------|

   S S S S S S S S S S S S S S S S  S S S S S S S S S S S S S S S S 
e |1510--101510--101510--101510--10|1511--111511--111511--111511--11|
B |----11------11------11------11--|----13------13------13------13--|
G |--------------------------------|--------------------------------|
D |--------------------------------|--------------------------------|
A |--------------------------------|--------------------------------|
E |--------------------------------|--------------------------------|

   S S S S S S S S S S S S S S S S  S S S S S S S S S S S S S S E   
e |1714--141714--14----------------|--------------------------1315--|
B |------------------------1613--13|16151315161513151615131516------|
G |----17------17--1714--14----14--|--------------------------------|
D |--------------------16----------|--------------------------------|
A |--------------------------------|--------------------------------|
E |--------------------------------|--------------------------------|

    And the song repeats here.





                                BASS PART
    Intro

    0:00 - 0:10              0:10 - 0:20             0:20 - 0:30     
G |------------------|     |----------------|      |----------------|
D |------------------|     |5-------5-------|x8    |----------------|x8
A |------------------|     |----------------|      |5-------5-------|
E |3-----------------|     |----------------|      |----------------|

    0:30
G |----------------|----------------|----------------|----------------|
D |----4-5-----4-5-|----4-5-----4-5-|----4-5-----4-5-|----4-5-----4-5-|
A |----------------|----------------|----------------|----------------|
E |3-3-----3-3-----|3-3-----3-3-----|3-3-----3-3-----|3-3-----3-3-----|

    Part A (0:35)

G |----------------|----------------|----------------|----------------|
D |----5-5-----5-5-|----5-5-----5-5-|----5-7-----5-7-|----2-2-3-3-4-4-|
A |----------------|----------------|----------------|5-5-------------|
E |3-3-----3-3-----|3-3-----3-3-----|5-5-----5-5-----|----------------|

G |----------------|----------------|----------------|----5-7---------|
D |----5-5-----5-5-|----5-5-----5-5-|----5-7-----5-7-|------------5---|
A |----------------|----------------|----------------|5-5-------------|
E |3-3-----3-3-----|3-3-----3-3-----|5-5-----5-5-----|--------3-3-----|

G |----------------|----1313----1313|----------------|----1313----1313|
D |----1010----1010|----------------|----1010----1010|----------------|
A |----------------|1111----1111----|----------------|1111----1111----|
E |8-8-----8-8-----|----------------|8-8-----8-8-----|----------------|

G |----------------|----1414----1414|----------------|----1414----1414|
D |----1111----1111|----------------|----1111----1111|----------------|
A |----------------|1212----1212----|----------------|1212----1212----|
E |9-9-----9-9-----|----------------|9-9-----9-9-----|----------------|

G |----------------|----------------|----------------|----1212----1212|
D |----1212----1212|----7-7-----7-7-|----1010----1010|----------------|
A |----------------|----------------|----------------|1010----1010----|
E |1010----1010----|5-5-----5-5-----|8-8-----8-8-----|----------------|

G |----------------|----------------|----------------|----9-9-----9-9-|
D |----1212----1212|----7-7-----7-7-|----1010----1010|----------------|
A |----------------|----------------|----------------|7-7-----7-7-----|
E |1010----1010----|5-5-----5-5-----|8-8-----8-8-----|----------------|

    Rest for two bars, then repeat all of Part A including the rest.

    Part B (1:42)

G |----8-8-----8-8-|----8-8-----8-8-|----8-8-----8-8-|----8-8-----8-8-|
D |----------------|----------------|----------------|----------------|
A |6-6-----6-6-----|6-6-----6-6-----|6-6-----6-6-----|6-6-----6-6-----|
E |----------------|----------------|----------------|----------------|

G |----9-9-----9-9-|----9-9-----9-9-|----9-9-----9-9-|----9-9-----9-9-|
D |----------------|----------------|----------------|----------------|
A |7-7-----7-7-----|7-7-----7-7-----|7-7-----7-7-----|7-7-----7-7-----|
E |----------------|----------------|----------------|----------------|

G |----1010----1010|----1010----1010|----1010----1010|----------------|
D |----------------|----------------|----------------|----1010----1010|
A |8-8-----8-8-----|8-8-----8-8-----|8-8-----8-8-----|----------------|
E |----------------|----------------|----------------|8-8-----8-8-----|

G |----1010----1010|----1111----1111|
D |----------------|----------------|        Rest for four bars.
A |8-8-----8-8-----|9-9-----9-9-----|
E |----------------|----------------|

    Part C (2:05)

G |--------7-7-----|
D |----------------| x16
A |5---------------|
E |----------------|

G |----------------|----------------|----------------|----------------|
D |----5-5-----5-5-|----5-5-----5-5-|----5-7-----5-7-|----2-2-3-3-4-4-|
A |----------------|----------------|----------------|5-5-------------|
E |3-3-----3-3-----|3-3-----3-3-----|5-5-----5-5-----|----------------|

G |----------------|----------------|----------------|----5-7---------|
D |----5-5-----5-5-|----5-5-----5-5-|----5-7-----5-7-|------------5---|
A |----------------|----------------|----------------|5-5-------------|
E |3-3-----3-3-----|3-3-----3-3-----|5-5-----5-5-----|--------3-3-----|

    Part D (2:36)

G |----5-7---------|----5-7---------|----3-5---------|----3-5---------| \
D |----------------|----------------|----------------|----------------|  |
A |5-5-----5-5-3-4-|5-5-----5-5-3-4-|3-3-----3-3-1-2-|3-3-----3-3-1-2-|  |
E |----------------|----------------|----------------|----------------|  |
                                                                         | x13
G |----------------|----------------|----5-7---------|----5-7---------|  |
D |----3-5-----3-4-|----3-5-----3-4-|----------------|----------------|  |
A |----------------|----------------|5-5-----5-5-3-4-|5-5-----5-5-3-4-|  |
E |3-3-----3-3-----|3-3-----3-3-----|----------------|----------------| /

    Part E (4:49)

G |----7-7-----7-7-|----7-7-----7-7-|----------------|----------------| \
D |----------------|----------------|----5-7-----5-7-|----5-7-----5-7-|  |
A |5-5-----5-5-----|5-5-----5-5-----|----------------|----------------|  |
E |----------------|----------------|5-5-----5-5-----|5-5-----5-5-----|  |
                                                                         |
G |----7-7-----7-7-|----7-7-----7-7-|----------------|----7-7-----7-7-|  |
D |----------------|----------------|----5-7-----5-7-|----------------|  |
A |5-5-----5-5-----|5-5-----5-5-----|----------------|5-5-----5-5-----|  |
E |----------------|----------------|5-5-----5-5-----|----------------|  |
                                                                         | x2
G |----7-7-----7-7-|----7-7-----7-7-|----------------|----------------|  |
D |----------------|----------------|----3-5-----3-5-|----3-5-----3-5-|  |
A |5-5-----5-5-----|5-5-----5-5-----|----------------|----------------|  |
E |----------------|----------------|3-3-----3-3-----|3-3-----3-3-----|  |
                                                                         |
G |----------------|----------------|----------------|----------------|  |
D |----5-7-----5-7-|----5-7-----5-7-|----5-7-----5-7-|----------------|  |
A |----------------|----------------|----------------|5---------------|  |
E |5-5-----5-5-----|5-5-----5-5-----|5-5-----5-5-----|----------------| /

    Part F (5:30)

G |----7-7-----7-7-|----------------|----7-7-----7-7-|----------------|
D |----------------|----5-7-----5-7-|----------------|----5-7-----5-7-|
A |5-5-----5-5-----|----------------|5-5-----5-5-----|----------------|
E |----------------|5-5-----5-5-----|----------------|5-5-----5-5-----|

G |----7-7-----7-7-|----------------|----7-7-----7-7-|----------------|
D |----------------|----5-7-----5-7-|----------------|----5-7-----5-7-|
A |5-5-----5-5-----|----------------|5-5-----5-5-----|----------------|
E |----------------|5-5-----5-5-----|----------------|5-5-----5-5-----|

G |----7-7-----7-7-|----------------|----------------|----7-7-----7-7-|
D |----------------|----3-5-----3-5-|----5-7-----5-7-|----------------|
A |5-5-----5-5-----|----------------|----------------|5-5-----5-5-----|
E |----------------|3-3-----3-3-----|5-5-----5-5-----|----------------|

G |----------------|----5-5-----5-5-|----7-7-----7-7-|----7-7-----7-7-|
D |----3-5-----3-5-|----------------|----------------|----------------|
A |----------------|3-3-----3-3-----|5-5-----5-5-----|5-5-----5-5-----|
E |3-3-----3-3-----|----------------|----------------|----------------|

    Repeat back to freaky intro.

        
Comments

No comments yet