Gametabs
Home
Tabs
Random

Main Theme

Average rating: 5.000

3 ratings

Composer:

Tabber:

Style:

Instrument:

Created: May 19, 2014 at 12:00 AM

            Monster Hunter Theme
Composed by Masto Kouda

Guitar (Capo 1)
Standard Tuning


              |-3-| |-3-|
    S. T E Q  E E E E E E   Q.   S S Q  Q    S S Q  S S Q  Q    W
||---------0--------0-----|-5----3-1-0-----|---0-1--0---0-----|------|
||o-3----3--------3---3---|-6--------1--1--|-3--------3-1--1--|------|
||--2--2---2----2-------2-|-7--------2--2--|-3----------2-----|-2----|
||--0---------0-----------|-7--------2-----|-0----------2-----|-2----|
||o--------0--------------|----------0-----|------------0-----|-0----|
||------------------------|----------------|------------------|------|


            |-3-| |-3-|
  S. T E Q  E E E E E E    Q.   S  S  Q   Q    S S Q  S S Q  Q    W
|--------0--------0-----|-10----8------------|---------------1--|-3-----||
|-3----3--------3---3---|--8------11-10------|------------1-----|------o||
|-2--2---2----2-------2-|--8---------10--10--|-0-2-3--2-3-------|-4-----||
|-0---------0-----------|--8---------10------|------------------|-5-----||
|--------0--------------|-------------8------|--------0---------|------o||
|-----------------------|--------------------|-3----------------|-------||


  |-3--|     |-3-|   |-3--|     |-3-|   |-3--|     |-3-|   |-3--|     |-3-|
  Q E +H.    E E E   Q E +H.    E E E   Q E +H.    E E E   Q E +H.    E E E
|------------------|------------------|------------------|--------------1-2-|
|-3-4-(4)----4-3---|-3-1-(1)----1-3-4-|-6-7-(7)----7-6---|-6-4-(4)----4-----|
|----------------3-|------------------|----------------6-|------------------|
|------------------|------------------|------------------|------------------|
|------------------|------------------|------------------|------------------|
|------------------|------------------|------------------|------------------|


  |-3--|     |-3-|   |-3--|     |-3-|         |-3--| |-3-|
  Q E +H.    E E E   Q E +H.    E E E   H    +E  E E E E E   H    H
|-4-5-(5)----5-4---|-4-2-(2)----2-4-5-|-6----(6)---4-6-4---|-8----9----|
|----------------5-|------------------|----------4-------4-|-----------|
|------------------|------------------|--------------------|-----------|
|------------------|------------------|--------------------|-----------|
|------------------|------------------|--------------------|-----------|
|------------------|------------------|--------------------|-----------|


            |-3-| |-3-|
  S. T E Q  E E E E E E   Q.   S S Q  Q    S S Q  S S Q  Q    W
|--------0--------0-----|-5----3-2-0-----|------------------|------|
|-3----3--------3---3---|-2--------2--2--|-0-2-3--2-0-2-----|------|
|-2--2---2----2-------2-|-2--------2-----|-0-------------2--|------|
|-0---------0-----------|-4--------0-----|------------2--2--|-4----|
|--------0--------------|----------------|------------0-----|-5----|
|-----------------------|----------------|-3----------------|------|


            |-3-| |-3-|
  S. T E Q  E E E E E E    Q.   S S Q  Q    S S Q  S S Q   Q     E S  S E  E  +H
|--------0--------0-----|-10----8-6-5-----|-3-5-6--5-6-8--12--|-10---10---10-(10)----|
|-3----3--------3---3---|--------------6--|-------------------|------------7--(7)----|
|-2--2---2----2-------2-|-----------7-----|-3------5-------9--|--7-7----7--7--(7)----|
|-0---------0-----------|--8--------------|-------------------|----------------------|
|--------0--------------|-----------------|-------------------|----------------------|
|-----------------------|-----------------|-------------------|----------------------|


            |-3-| |-3-|
  S. T E Q  E E E E E E   Q.   S S Q  Q    S S Q  S S Q  Q    W
|--------0--------0-----|-5----3-2-0-----|------------------|------|
|-3----3--------3---3---|-2--------2--2--|-0-2-3--2-0-2-----|------|
|-2--2---2----2-------2-|-2--------2-----|-0-------------2--|------|
|-0---------0-----------|-4--------0-----|------------2--2--|-4----|
|--------0--------------|----------------|------------0-----|-5----|
|-----------------------|----------------|-3----------------|------|


            |-3-| |-3-|
  S. T E Q  E E E E E E   Q.   S S H      S S Q  S S Q  Q    E S S E E S S E Q    +W
|--------0--------0-----|-6----5-3-2----|-0-2-3--2-3-5--9--|-7---7---7---7---7--|-(7)----*|
|-3----3--------3---3---|-3--------3----|------------------|-----------------4--|-(4)----*|
|-2--2---2----2-------2-|-4--------3----|-0------2------6--|-4-4---4-4-4---4-4--|-(4)----*|
|-0---------0-----------|---------------|------------------|--------------------|--------*|
|--------0--------------|---------------|------------------|--------------------|--------*|
|-----------------------|---------------|------------------|--------------------|--------*|

W - whole
H - half
Q - quarter
E - 8th
S - 16th
T - 32nd
+ - note tied to previous
. - note dotted

        
Comments

No comments yet