Gametabs
Home
Tabs
Random

Main Theme

Average rating: 5.000

3 ratings

Composer:

Tabber:

Style:

Instrument:

Created: January 31, 2011 at 12:00 AM

            Monster Hunter Theme

Game: Monster hunter 1, also heard throughout the series.
Tabber: Zak Dank
Composer: Masato Kouda 
Tuning: Standard


E||----------------------|---------------------------|
B||----------------------|---------------------------|
G||--8---------8----10---|-------8----10---8---------|
D||-------8--------------|--8-------------------8----|
A||----------------------|---------------------------|
E||----------------------|---------------------------|


   
-----------------------------------|----------------------------------|
-------11----9---------------------|----------------------------------|
------------------11----10---------|--8----10----11----10----8----10--|
-------------------------------11--|----------------------------------|
-----------------------------------|----------------------------------|
-----------------------------------|----------------------------------|



----------|-----------------------------------------------------------|
----------|-----------------------------------------------------------|
----------|---8-----------8----10------------8----10----8-------------|
--11----8-|--------8--------------------8-------------------8---------|
----------|-----------------------------------------------------------|
----------|-----------------------------------------------------------|



-----11----9-------------------------------------------------14---16-|
---------------12----11----------9----11--12---11--12--14------------|
--------------------------11-----------------------------------------|
---------------------------------------------------------------------|
---------------------------------------------------------------------|
---------------------------------------------------------------------|






----------------------|---------------------------|
----------------------|---------------------------|
--8---------8----10---|-------8----10---8---------|
-------8--------------|--8-------------------8----|
----------------------|---------------------------|
----------------------|---------------------------|


   
-----------------------------------|----------------------------------|
-------11----9---------------------|----------------------------------|
------------------11----10---------|--8----10----11----10----8----10--|
-------------------------------11--|----------------------------------|
-----------------------------------|----------------------------------|
-----------------------------------|----------------------------------|



----------|-----------------------------------------------------------|
----------|-----------------------------------------------------------|
----------|---8-----------8----10------------8----10----8-------------|
--11----8-|--------8--------------------8-------------------8---------|
----------|-----------------------------------------------------------|
----------|-----------------------------------------------------------|



-----11----9-------------------------------------------------13---11-|
---------------12----11----------9----11--12---11--12--14------------|
--------------------------11-----------------------------------------|
---------------------------------------------------------------------|
---------------------------------------------------------------------|
---------------------------------------------------------------------|




        
Comments

@Rairai (February 01, 2011 at 7:23 AM)

I've been wanting this for a long time, thanks a lot. :3


@Crabble (July 07, 2013 at 5:13 PM)

Damn this is Great! I've been playing Monster Hunter Tri Ultimate for the past few days and can't imagine a better song to play on the guitar than that!